PrimaNota.ru - самый крупный в мире бесплатный архив песенных текстов, аккордов, табулатур и нот


The Color Morale - Smoke And Mirrors - таба, видео

Регистрация Запомнить меня
Войти через:  Facebook Google Twitter Vk Yandex Mail.ru

The Color Morale - Smoke And Mirrors - таба, видео

Печатать
Просмотров: 74
-------------------------------------------------------------------------------
                             SMOKE AND MIRRORS ACOUSTIC - The Color Morale
-------------------------------------------------------------------------------
Tabbed by: grizzlyangus
E-mail: acampbell4396@gmail.com

This is the live acoustic version Garret and Devin did for Hot Topic.. here's the link 
for the strum pattern and video itself. http://www.youtube.com/watch?v=tFI3de0yfbI

Cheers :)

Tuning: Standard (Capo 3)

e|--0------x----x----x----x-----0----------------------------------------------------|
B|--1------x----x----x----x-----1----------------------------------------------------|
G|--2------x----x----x----x-----2----------------------------------------------------|
D|--2------3----2----3----2-----2----------------------------------------------------|
A|--0------1----1----1----1-----0----------------------------------------------------|
E|--0------x----x----x----x-----0----------------------------------------------------|
 (Repeat four times)


e|--1---1---3---5----------------------------------------------------------------|
B|--1---1---3---5----------------------------------------------------------------|
G|--1---1---3---5----------------------------------------------------------------|
D|--3---3---5---7----------------------------------------------------------------|
A|--3---3---5---7----------------------------------------------------------------|
E|--1---0---3---5----------------------------------------------------------------|
(Each note played three times) also, you'll be playing this sequence twice before the chorus

Chorus
e|--0----0----0----0----0----0-----------------------------------------------------|
B|--1----1----1----1----1----1-----------------------------------------------------|
G|--2----2----2----2----2----0-----------------------------------------------------|
D|--2----3----2----0----3----2-----------------------------------------------------|
A|--0----3----0----2----3----0-----------------------------------------------------|
E|--0----0----0----x----0----0-----------------------------------------------------|

2nd Verse
e|--0------x----x----x----x-----0----------------------------------------------------|
B|--1------x----x----x----x-----1----------------------------------------------------|
G|--2------x----x----x----x-----2----------------------------------------------------|
D|--2------3----2----3----2-----2----------------------------------------------------|
A|--0------1----1----1----1-----0----------------------------------------------------|
E|--0------x----x----x----x-----0----------------------------------------------------|
 (Repeat four times)

e|------------------------------1--------------------------------------------------|
B|-------1-------1------1-------1--------------------------------------------------|
G|----2--------2------2---------2--------------------------------------------------|
D|------------------------------3--------------------------------------------------|
A|--0-------2-------3-----------3--------------------------------------------------|
E|--------------------------00--1--------------------------------------------------|
(Also repeat four times)

e|--3----5----1------------x--x--x---------------------------------------------------|
B|--3----5----1------------x--x--x---------------------------------------------------|
G|--3----5----1------------x--x--x---------------------------------------------------|
D|--5----7----3------------x--x--x---------------------------------------------------|
A|--5----7----3------------x--x--x---------------------------------------------------|
E|--3----5----1------------x--x--x---------------------------------------------------|
(Repeat two times)

Chorus
e|--0----0----0----0----0----0-----------------------------------------------------|
B|--1----1----1----1----1----1-----------------------------------------------------|
G|--2----2----2----2----2----0-----------------------------------------------------|
D|--2----3----2----0----3----2-----------------------------------------------------|
A|--0----3----0----2----3----0-----------------------------------------------------|
E|--0----0----0----x----0----0-----------------------------------------------------|

Bridge-ish part after the chorus
e|--0----0----0----0-------------------------------------------------------------|
B|--1----1----1----0-------------------------------------------------------------|
G|--2----0----2----1-------------------------------------------------------------|
D|--2----1----3----2-------------------------------------------------------------|
A|--0----3----3----2-------------------------------------------------------------|
E|--0----0----0----0-------------------------------------------------------------|
(Repeat three times)

x - mute
Добавлено: 30.10.2013
Другие материалы по этой песне:

Страница создана 28.08.2013
http://primanota.ru/the-color-morale/smoke-and-mirrors-chords.htm
Привет, Гость.
Предлагаем пройти революционный курс по гитаре.
Подарок от PrimaNota.Ru, забирай!