PrimaNota.ru - самый крупный в мире бесплатный архив песенных текстов, аккордов, табулатур и нот


The Cliks - Dirty King - таба, видео

Регистрация Запомнить меня
Войти через:  Facebook Google Twitter Vk Yandex Mail.ru

The Cliks - Dirty King - таба, видео

Печатать
Просмотров: 113
-----------------------------------------------------------------------------
                             DIRTY KING - The Cliks
-----------------------------------------------------------------------------

No one has tabbed this and I know a lot of people are looking for this tab. So I thought
give it a shot. It's 100% by ear, so if some parts are off, dont b***h.

I love Lucas Silveria and this bad is WAYYY underrated. 

****UPDATES: 9/7/08: Fixed the intro, added the palm mutes to the verses, fixed the post 
and fixed the solo.

9/9/09: Fixed even more of the solo

1/15/2012: Been a while, but I realized some stuff was wrong
             > Intro fixed
             > Verse fixed


Tuning: Standard


INTRO *(start on 12 and tremolo as you slide to 1)
e|--------------------------------------------------------------------------|
B|------------------------------------88--8---88--8-------------------------|
G|------------------------------------99--9---99--9-------------------------|
D|------------------------------------99--9---99--9-------------------------|
A|------------------------------------77--7---77--7-------------------------|
E|-*12/1---22-33-55-77-88-77-55-33-0~---------------------------------------|

e|--------------------------------------------------------------------------|
B|------------------------------------88--8--8------------------------------|
G|------------------------------------99--9--9------------------------------|
D|------------------------------------99--9--9------------------------------|
A|------------------------------------77--7--7------------------------------|
E|-22-33-55-77-88-77-55-33-0~----------------7------------------------------|


VERSE 1 (Well I could do the dishes...) x2  !!**xx = palm mute**!!
e|--------------------------------------------------------------------------|
B|----88-8----88-8----------------------------------------------------------|
G|----99-9----99-9-----88-8----88-8-----------------------------------------|
D|----99-9----99-9-----99-9----99-9-----------------------------------------|
A|-77-77-7-77-77-7-----99-9----99-9-----------------------------------------|
E|------------------77-77-7-77-77-7-----------------------------------------|
   xx      xx       xx      xx
e|--------------------------------------------------------------------------|
B|-------------88-8---------------------------------------------------------|
G|----66-6-----88-8------99--9--9-------------------------------------------|
D|----77-7-----99-9------99--9--9-------------------------------------------|
A|----77-7-----99-9---77-77--7--7-------------------------------------------|
E|-55-55-5--77-77-7---------------------------------------------------------|
   xx       xx
Pre Chorus (I am your dirty k-k..) x3
e|--------------------------------------------------------------------------|
B|--------------------------------------------------------------------------|
G|--------------------------------------------------------------------------|
D|--------------------------------------------------------------------------|
A|-3-3-3-3-3----------------------------------------------------------------|
E|-1-1-0-1-1----------------------------------------------------------------|


Chorus ( I am your dirty king!...)
e|--------------------------------------------------------------------------|
B|-8--------------------------------8------88-8-8---------------------------|
G|-9--------8---------6-------8-----9------99-9-9---------------------------|
D|-9--------9---------7-------9-----9------99-9-9---------------------------|
A|-7-(x16)--9---------7-(x8)--9-----7-(x4)-77-7-7---------------------------|
E|----------7-(x16)---5-------7(x8)-------------7---------------------------|

   Post Chorus
e|--------------------------------------------------------------------------|
B|------------------------------------88--8---88--8-------------------------|
G|------------------------------------99--9---99--9-------------------------|
D|------------------------------------99--9---99--9-------------------------|
A|------------------------------------77--7---77--7-------------------------|
E|-22-33-55-77-88-77-55-33-0~-----------------------------------------------|

e|--------------------------------------------------------------------------|
B|------------------------------------88--8--8------------------------------|
G|------------------------------------99--9--9------------------------------|
D|------------------------------------99--9--9------------------------------|
A|------------------------------------77--7--7------------------------------|
E|-22-33-55-77-88-77-55-0~-------------------7------------------------------|


VERSE 2 (Hey, I can be your boyfriend...) x2
e|--------------------------------------------------------------------------|
B|----88-8----88-8----------------------------------------------------------|
G|----99-9----99-9-----88-8----88-8-----------------------------------------|
D|----99-9----99-9-----99-9----99-9-----------------------------------------|
A|-77-77-7-77-77-7-----99-9----99-9-----------------------------------------|
E|------------------77-77-7-77-77-7-----------------------------------------|
   xx      xx       xx      xx
e|--------------------------------------------------------------------------|
B|-------------88-8---------------------------------------------------------|
G|----66-6-----88-8------99--9--9-------------------------------------------|
D|----77-7-----99-9------99--9--9-------------------------------------------|
A|----77-7-----99-9---77-77--7--7-------------------------------------------|
E|-55-55-5--77-77-7---------------------------------------------------------|

Pre Chorus (I am your dirty k-k..) x3
e|--------------------------------------------------------------------------|
B|--------------------------------------------------------------------------|
G|--------------------------------------------------------------------------|
D|--------------------------------------------------------------------------|
A|-3-3-3-3-3----------------------------------------------------------------|
E|-1-1-0-1-1----------------------------------------------------------------|


Chorus ( I am your dirty king!...) x2
e|--------------------------------------------------------------------------|
B|-8--------------------------------8------88-8-8---------------------------|
G|-9--------8---------6-------8-----9------99-9-9---------------------------|
D|-9--------9---------7-------9-----9------99-9-9---------------------------|
A|-7-(x16)--9---------7-(x8)--9-----7-(x4)-77-7-7---------------------------|
E|----------7-(x16)---5-------7(x8)-------------7---------------------------|


Solo (Not fully sure. Corrections comments are very welcome.)
e|--------------------------------------------------------------------------|
B|--------------------------------------------------------------------------|
G|--------------------------------------------------------------------------|
D|-3/55/77/10-9h10p9~---3/55/77/10/12\10\7~---------------------------------|
A|--------------------------------------------------------------------------|
E|--------------------------------------------------------------------------|

e|--------------------------------------------------------------------------|
B|--------------------------------------------------------------------------|
G|--------------------------------------------------------------------------|
D|-3/55/77/10-9h10p9~--9/13/18\16\9~----------------------------------------|
A|--------------------------------------------------------------------------|
E|--------------------------------------------------------------------------|
    (Ah yeah!)
e|--99-7-97-7-7^^-----------------------------------------------------------|
B|--99-7-97-7-7^^99-7-99----------------------------------------------------|
G|-----------------------9^7------------------------------------------------|
D|---------------------------9-999979-11-12/14\12/14/16\14~-----------------|
A|--------------------------------------------------------------------------|
E|--------------------------------------------------------------------------|
                                      *Elevens & Twelves
                                       Fourteens & Sixteens
e|--99-7-9\7----------------------------------------------------------------|
B|--99-7-9\7----------------------------------------------------------------|
G|------------9^^--9-5-9-9^7------12-9-12-13~-171717-15-14-15-9~------------|
D|------------9^^------------9^---------------------------------------------|
A|--------------------------------------------------------------------------|
E|--------------------------------------------------------------------------|
                                  *Twelves, Thirteens, Seventeens
                                   Fifteens, Fourteens


Pre Chorus (I am your dirty k-k..) x3
e|--------------------------------------------------------------------------|
B|--------------------------------------------------------------------------|
G|--------------------------------------------------------------------------|
D|--------------------------------------------------------------------------|
A|-3-3-3-3-3----------------------------------------------------------------|
E|-1-1-0-1-1----------------------------------------------------------------|


Chorus ( I am your dirty king!...) x2
e|--------------------------------------------------------------------------|
B|-8--------------------------------8------88-8-8---------------------------|
G|-9--------8---------6-------8-----9------99-9-9---------------------------|
D|-9--------9---------7-------9-----9------99-9-9---------------------------|
A|-7-(x16)--9---------7-(x8)--9-----7-(x4)-77-7-7---------------------------|
E|----------7-(x16)---5-------7(x8)-------------7---------------------------|

Pre Chorus (I am your dirty k-k..) x3
e|--------------------------------------------------------------------------|
B|--------------------------------------------------------------------------|
G|--------------------------------------------------------------------------|
D|--------------------------------------------------------------------------|
A|-3-3-3-3-3----------------------------------------------------------------|
E|-1-1-0-1-1----------------------------------------------------------------|


   Outro

e|--------------------------------------------------------------------------|
B|-------------------------88-----------------------------------------------|
G|-------------------------99-----------------------------------------------|
D|-------------------------99-----------------------------------------------|
A|-------------------------77-----------------------------------------------|
E|-22-33-55-77-88-77-55----77-----------------------------------------------|

END. WHEW! That took forEVER. Haha, you're WELCOME. I hope its right. I'm banking on
95.321% correct. If you think its all wrong, do it yrself, dont complain to me. Thank you.

| ^  bend
| ^^ bend far
| /  slide up
| \  slide down
| h  hammer-on
| p  pull-off
| ~  vibrato
| +  harmonic
| x  Mute note
===============================================================================
Добавлено: 07.05.2012
Другие материалы по этой песне:
  • Аккорды и текст

Страница создана 10.04.2012
http://primanota.ru/the-cliks/dirty-king-chords.htm
Привет, Гость.
Предлагаем пройти революционный курс по гитаре.
Подарок от PrimaNota.Ru, забирай!