PrimaNota.ru - самый крупный в мире бесплатный архив песенных текстов, аккордов, табулатур и нот


The Clientele - That Night A Forest Grew - таба, видео

Регистрация Запомнить меня
Войти через:  Facebook Google Twitter Vk Yandex Mail.ru

The Clientele - That Night A Forest Grew - таба, видео

Печатать
Просмотров: 35
-------------------------------------------------------------------------------
                   THAT NIGHT A FOREST GREW - The Clientele
-------------------------------------------------------------------------------
Tabbed by: sezar
E-mail: keanu-rimedorf@hotmail.com

Tuning:Standart

Intro:

e|-2----2--2--0----0-0---------|
B|-0--0-0--0--0--0-0-0---------|
G|-2----2--2--2----2-2---------|
D|-----------------------------|
A|-----------------------------|
E|-----------------------------|

Verse:

e|-----------------------------|
B|-----------------------------|
G|-----------------------------|
D|-----------------------------|
A|-----2-5-4-2-0------2-5-4-0--|
E|-0-3------------0-3----------|

Bridge:

e|-----------------------------|
B|-----------------------------|
G|--/9~--/9~--/9~--/9~--/9~----|
D|-----------------------------|
A|-----------------------------|
E|-----------------------------|

/ : Slide from down
~ : Left hand vibrato

************************************

| /   slide up
| \   slide down
| h   hammer-on
| p   pull-off
| ~   vibrato
| +   harmonic
| x   Mute note
| b   Bend
| pb  Pre-bend
| br  Bend release
| pbr Pre-bend release
| brb Bend release bend

************************************
Добавлено: 28.05.2016
Другие материалы по этой песне:
  • Аккорды и текст

Страница создана 28.05.2016
http://primanota.ru/the-clientele/that-night-a-forest-grew-chords.htm
Привет, Гость.
Предлагаем пройти революционный курс по гитаре.
Подарок от PrimaNota.Ru, забирай!