PrimaNota.ru - самый крупный в мире бесплатный архив песенных текстов, аккордов, табулатур и нот


The Classic Crime - One Man Army - таба, видео

Регистрация Запомнить меня
Войти через:  Facebook Google Twitter Vk Yandex Mail.ru

The Classic Crime - One Man Army - таба, видео

Печатать
Просмотров: 135
Уроки эстрадного вокала в Санкт-Петербурге
                             One Man Army - The Classic Crime


Tabbed by: citruscommander


Tuning: standard

        Guitar 1
e|-----------------------------------------------------|
B|-------2-------2-------2-------2-------2-------2-----|
G|-----3---3---3---3---3---3---3---3---3---3---3---3---|
D|---3-------3-------3-------3-------3-------3-------3-|
A|-----------------------------------------------------|
E|-----------------------------------------------------|


        Guitar 2
e|------------------------------------|---------------------------------------|
B|------------------------------------|---------------------------------------|
G|------------------------------------|---------------------------------------|
D|-4--3-3-----------------------------|----4--3-3-----------------------------|
A|--------1--1--3--4--4--4--4---------|-----------1--1--3--4--4--4--4---------|
E|------------------------------------|---------------------------------------|

   I've been unalive and sleepin for      ...I've been unalive, prone to hide
        days in this comatose state...           from the messes that I've made


        Guitar 3 (with a bit of grit)
e|---------------------------------------------------------------------------|
B|---------------------------------------------------------------------------|
G|---------------------------------------------------------------------------|
D|---------------------------------------------------------------------------|
A|----------------1--1--3--4----------------------1--1-----------------------|
E|---2--1------------------------------2--1-------------4--1-----------------|
     I've been unalive...                I've been unalive...


---------------------------
Section 2
        (Think of this section in chunks of 8 strokes. Makes it easy to count
         the changes, which will fall on the 1st and 6th strokes)

e|---------------------|-------------------|
B|---------------------|-------------------|
G|-------------------6-|-6-6-6-6-6-8-8-10--|
D|--8-8-8-8-8-10-10----|-------------------|
A|---------------------|-------------------|
E|---------------------|-------------------|
   I used to let you fight...



e|-------------------------|-------------------|
B|-------------------------|-------------------|
G|-10-10-10-10-10-10-10-10-|-------------------|
D|-------------------------|-6-6-6-6-6-6-6-6---|
A|-------------------------|-------------------|
E|-------------------------|-------------------|
           ...All the battles    before me...



Repeat through but stay on 10 and slightly bend

for "...where I burned my plans to warm me!"

_____________

Repeat the part for Guitar 1 and Guitar 2 from the intro + first verses

"...I've been unalive..."

(I usually either do some palm muted chunking on an F#maj
or slide up and down the neck until...)

____________


    F#maj            Bbmin            Fmin
e|---------------------------------------------------------------------------|
B|---------------------------------------------------------------------------|
G|---------------------------------------------------------------------------|
D|--4-4-4-4-4-4-4-4--8-8-8-8-8-8-8-8--3-3-3-3-3-3-3-3-3-3-3-3-3-3-3-3--------|
A|--4-4-4-4-4-4-4-4--8-8-8-8-8-8-8-8--3-3-3-3-3-3-3-3-3-3-3-3-3-3-3-3--------|
E|--2-2-2-2-2-2-2-2--6-6-6-6-6-6-6-6--1-1-1-1-1-1-1-1-1-1-1-1-1-1-1-1--------|

            OOoohhh  Oohhhhhh

(Repeat)

    F#maj            Bbmin            Fmin
e|---------------------------------------------------------------------------|
B|---------------------------------------------------------------------------|
G|---------------------------------------------------------------------------|
D|--4-4-4-4-4-4-4-4--8-8-8-8-8-8-8-8--3-3-3-3-3-3-3-3-3-3-3-3-3-3-3-3--------|
A|--4-4-4-4-4-4-4-4--8-8-8-8-8-8-8-8--3-3-3-3-3-3-3-3-3-3-3-3-3-3-3-3--------|
E|--2-2-2-2-2-2-2-2--6-6-6-6-6-6-6-6--1-1-1-1-1-1-1-1-1-1-1-1-1-1-1-1--------|

   I used to let you fight                  the battles before me
   But now I stand   alone                  just a one man army

(repeat)

..."alone, alone, aloo-oone!"

_________________

Outro play Guitar 1 and Guitar 3 from first verse

        Guitar 1
e|---------------------------------------------------------------------------|
B|-------2-------2-------2-------2-------2-------2---------------------------|
G|-----3---3---3---3---3---3---3---3---3---3---3---3-------------------------|
D|---3-------3-------3-------3-------3-------3-------3-----------------------|
A|---------------------------------------------------------------------------|
E|---------------------------------------------------------------------------|


        Guitar 3 (with a bit of grit)
e|---------------------------------------------------------------------------|
B|---------------------------------------------------------------------------|
G|---------------------------------------------------------------------------|
D|---------------------------------------------------------------------------|
A|---------1--1--3--4----------------------1--1------------------------------|
E|---2--1----------------------------2--1-------4--1-------------------------|
Добавлено: 17.10.2013
Другие материалы по этой песне:
  • Аккорды и текст

Страница создана 17.10.2013
http://primanota.ru/the-classic-crime/one-man-army-chords.htm
Привет, Гость.
Предлагаем пройти революционный курс по гитаре.
Подарок от PrimaNota.Ru, забирай!