PrimaNota.ru - самый крупный в мире бесплатный архив песенных текстов, аккордов, табулатур и нот


The Classic Crime - The Coldest Heart Revisited - таба, видео

Регистрация Запомнить меня
Войти через:  Facebook Google Twitter Vk Yandex Mail.ru

The Classic Crime - The Coldest Heart Revisited - таба, видео

Печатать
Просмотров: 192
-------------------------------------------------------------------------------
                             The Coldest Heart (Revisited) - The Classic Crime
-------------------------------------------------------------------------------
Tabbed by: Donovan F
E-mail:

Tuning: Half-Step Down

This is from What Was Done: Volume 1 and is as close to exact as I can make it.
Listen to the song to get the strumming pattern.

If there is anything wrong let me know in the comments and please rate if y'all like it

 
    A couple of years and I'm a silhouette..  My halo is broken now...
eb|----4------------------------------4------5-----------------------------------|
Bb|----5------------------------------4------5-----------------------------------|
Gb|----6------------------------------4------6-----------------------------------|
Db|----6------------------------------6------7-----------------------------------|
Ab|----4------------------------------6------7-----------------------------------|
Eb|----x------------------------------4------5-----------------------------------|
  
    And I'm all thats left
eb|--7---------------------7---------------------------------------------------|
Bb|--7---------------------7---------------------------------------------------|
Gb|--9---------------------6-----=---------------------------------------------|
Db|--9---------------------9---------------------------------------------------|
Ab|--7---------------------9---------------------------------------------------|
Eb|--x---------------------7---------------------------------------------------|
    I hate to disappoint but its the way things went..  I was bound to things i did and
eb|----4-----------------------------------------4------5-----------------------------------|
Bb|----5-----------------------------------------4------5-----------------------------------|
Gb|----6-----------------------------------------4------6-----------------------------------|
Db|----6-----------------------------------------6------7-----------------------------------|
Ab|----4-----------------------------------------6------7-----------------------------------|
Eb|----x-----------------------------------------4------5-----------------------------------|
  
    after what was said
eb|--7---------------7---------------------------------------------------|
Bb|--7---------------7---------------------------------------------------|
Gb|--9---------------6-----=---------------------------------------------|
Db|--9---------------9---------------------------------------------------|
Ab|--7---------------9---------------------------------------------------|
Eb|--x---------------7---------------------------------------------------|


    tie up these loose ends.. these voices are calling me out
eb|--0---------------0--------------------------0----------0----------------------|
Bb|--0---------------0--------------------------0----------0----------------------|
Gb|--2---------------2--------------------------6----------4----------------------|
Db|--4---------------2--------------------------6----------4----------------------|
Ab|--4---------------0--------------------------4----------2----------------------|
Eb|--x---------------0--------------------------0----------0----------------------|
  
    I got the solution you should feed me to something that is leaving this doubt 
eb|--0---------------0--------------------------0---------------0----------------------|
Bb|--0---------------0--------------------------0---------------0----------------------|
Gb|--2---------------2--------------------------6---------------4----------------------|
Db|--4---------------2--------------------------6---------------4----------------------|
Ab|--4---------------0--------------------------4---------------2----------------------|
Eb|--x---------------0--------------------------0---------------0----------------------|
   
   Woah....           Im losing hope...         Theres a hole in my heart...
eb|--0---------------0--------------------------0-------------------------------------|
Bb|--0---------------0--------------------------0-------------------------------------|
Gb|--2---------------2--------------------------6-------------------------------------|
Db|--4---------------2--------------------------6-------------------------------------|
Ab|--4---------------0--------------------------4-------------------------------------|
Eb|--x---------------0--------------------------0-------------------------------------|

      Thats been cut out of stone
eb|----0----------------------|
Bb|----0----------------------|
Gb|----4----------------------|
Db|----4----------------------|
Ab|----2----------------------|
Eb|----0----------------------|

   Woah....           Cold comes, Cold goes...   could you fill this hole...
eb|--0---------------0--------------------------0-------------------------------------|
Bb|--0---------------0--------------------------0-------------------------------------|
Gb|--2---------------2--------------------------6-------------------------------------|
Db|--4---------------2--------------------------6-------------------------------------|
Ab|--4---------------0--------------------------4-------------------------------------|
Eb|--x---------------0--------------------------0-------------------------------------|

      cause i can't do it...
eb|----0-----------------------------------0----0--|
Bb|----0-----------------------------------0----0--|
Gb|----4-----------------------------------2----2--|
Db|----4-----------------------------------4----2--|
Ab|----2-----------------------------------4----0--|
Eb|----0-----------------------------------x----0--|




 A couple of tears and I'm a broken mess     the sadness has taken me far too
eb|----4------------------------------4------5-----------------------------------|
Bb|----5------------------------------4------5-----------------------------------|
Gb|----6------------------------------4------6-----------------------------------|
Db|----6------------------------------6------7-----------------------------------|
Ab|----4------------------------------6------7-----------------------------------|
Eb|----x------------------------------4------5-----------------------------------|
  
    deep in regret
eb|--7-----------7---------------------------------------------------|
Bb|--7-----------7---------------------------------------------------|
Gb|--9-----------6-----=---------------------------------------------|
Db|--9-----------9---------------------------------------------------|
Ab|--7-----------9---------------------------------------------------|
Eb|--x-----------7---------------------------------------------------|
       So sing me a song about something good..   My hearts on the the thrashing floor and    
eb|----4-----------------------------------4------5-----------------------------------|
Bb|----5-----------------------------------4------5-----------------------------------|
Gb|----6-----------------------------------4------6-----------------------------------|
Db|----6-----------------------------------6------7-----------------------------------|
Ab|----4-----------------------------------6------7-----------------------------------|
Eb|----x-----------------------------------4------5-----------------------------------|
  
    Ive done every single thing i could
eb|--7---------------7---------------------------------------------------|
Bb|--7---------------7---------------------------------------------------|
Gb|--9---------------6-----=---------------------------------------------|
Db|--9---------------9---------------------------------------------------|
Ab|--7---------------9---------------------------------------------------|
Eb|--x---------------7---------------------------------------------------|

   I used to believe in some kind of feeling that could change every thing i thought i knew
eb|--0---------------0----------------0------------------0----------------------|
Bb|--0---------------0----------------0------------------0----------------------|
Gb|--2---------------2----------------6------------------4----------------------|
Db|--4---------------2----------------6------------------4----------------------|
Ab|--4---------------0----------------4------------------2----------------------|
Eb|--x---------------0----------------0------------------0----------------------|
  
    But that door is closed and my hearts feels like its frozen if you hear me i can feel you
eb|--0---------------0------------------------------------0---------------0----------------------|
Bb|--0---------------0------------------------------------0---------------0----------------------|
Gb|--2---------------2------------------------------------6---------------4----------------------|
Db|--4---------------2------------------------------------6---------------4----------------------|
Ab|--4---------------0------------------------------------4---------------2----------------------|
Eb|--x---------------0------------------------------------0---------------0----------------------|
   
   Woah....           Im losing hope...         Theres a hole in my heart...
eb|--0---------------0--------------------------0-------------------------------------|
Bb|--0---------------0--------------------------0-------------------------------------|
Gb|--2---------------2--------------------------6-------------------------------------|
Db|--4---------------2--------------------------6-------------------------------------|
Ab|--4---------------0--------------------------4-------------------------------------|
Eb|--x---------------0--------------------------0-------------------------------------|

      Thats been cut out of stone
eb|----0----------------------|
Bb|----0----------------------|
Gb|----4----------------------|
Db|----4----------------------|
Ab|----2----------------------|
Eb|----0----------------------|

   Woah....           Cold comes, Cold goes...   could you fill this hole...
eb|--0---------------0--------------------------0-------------------------------------|
Bb|--0---------------0--------------------------0-------------------------------------|
Gb|--2---------------2--------------------------6-------------------------------------|
Db|--4---------------2--------------------------6-------------------------------------|
Ab|--4---------------0--------------------------4-------------------------------------|
Eb|--x---------------0--------------------------0-------------------------------------|

      cause i can't do it alone
eb|----0-----------------------------------0----0--|
Bb|----0-----------------------------------0----0--|
Gb|----4-----------------------------------2----2--|
Db|----4-----------------------------------4----2--|
Ab|----2-----------------------------------4----0--|
Eb|----0-----------------------------------x----0--|
    The coldest heart can be brought to life when its thrown into the fire of goodbyes x4
eb|--0-----------0------------------------0------------0---------------------------|
Bb|--0-----------0------------------------0------------0---------------------------|
Gb|--6-----------4------------------------2------------2---------------------------|
Db|--6-----------4------------------------4------------2---------------------------|
Ab|--4-----------2------------------------4------------0---------------------------|
Eb|--0-----------0------------------------x------------0---------------------------|

  Woah....           Im losing hope...         Theres a hole in my heart...
eb|--0---------------0--------------------------0-------------------------------------|
Bb|--0---------------0--------------------------0-------------------------------------|
Gb|--2---------------2--------------------------6-------------------------------------|
Db|--4---------------2--------------------------6-------------------------------------|
Ab|--4---------------0--------------------------4-------------------------------------|
Eb|--x---------------0--------------------------0-------------------------------------|

      Thats been cut out of stone
eb|----0----------------------|
Bb|----0----------------------|
Gb|----4----------------------|
Db|----4----------------------|
Ab|----2----------------------|
Eb|----0----------------------|

   Woah....           Cold comes, Cold goes...   could you fill this hole...
eb|--0---------------0--------------------------0-------------------------------------|
Bb|--0---------------0--------------------------0-------------------------------------|
Gb|--2---------------2--------------------------6-------------------------------------|
Db|--4---------------2--------------------------6-------------------------------------|
Ab|--4---------------0--------------------------4-------------------------------------|
Eb|--x---------------0--------------------------0-------------------------------------|

      cause i can't do it alone
eb|----0-----------------------------------0----0--|
Bb|----0-----------------------------------0----0--|
Gb|----4-----------------------------------2----2--|
Db|----4-----------------------------------4----2--|
Ab|----2-----------------------------------4----0--|
Eb|----0-----------------------------------x----0--|
 

  Ive got the coldest heart I've got the coldest heart I've got the coldest heart I've got the coldest heart
eb|--0-----------------------0------------------------0----------------------------0------------|
Bb|--0-----------------------0------------------------0----------------------------0------------|
Gb|--6-----------------------4------------------------2----------------------------2------------|
Db|--6-----------------------4------------------------4----------------------------2------------|
Ab|--4-----------------------2------------------------4----------------------------0------------|
Eb|--0-----------------------0------------------------x----------------------------0------------|

************************************

| /   slide up
| \   slide down
| h   hammer-on
| p   pull-off
| ~   vibrato
| +   harmonic
| x   Mute note
| b   Bend
| pb  Pre-bend
| br  Bend release
| pbr Pre-bend release
| brb Bend release bend

************************************
Добавлено: 05.07.2015
Вам также может быть интересно:
Другие материалы по этой песне:
  • Аккорды и текст

Страница создана 05.07.2015
http://primanota.ru/the-classic-crime/coldest-heart-revisited-chords.htm
Привет, Гость.
Предлагаем пройти революционный курс по гитаре.
Подарок от PrimaNota.Ru, забирай!