PrimaNota.ru - самый крупный в мире бесплатный архив песенных текстов, аккордов, табулатур и нот


The Civil Wars - My Fathers Father - таба, видео

Регистрация Запомнить меня
Войти через:  Facebook Google Twitter Vk Yandex Mail.ru

The Civil Wars - My Fathers Father - таба, видео

Печатать
Просмотров: 95
Artist: The Civil Wars
Song: My Father's Father
Album: Barton Hollow
Tuning: Standard

This tab is based on the album version but if you need a visual reference:
http://www.youtube.com/watch?v=kbBARTHE6Ug

Enjoy!

Intro

e |----------------------------------x-----------x-----|
B |----------------------------------x-----------x-----|
G |------9---9--(x2)----9----9----9--x--9----9---x--9--|
D |------9---9----------9----9----9--x--9----9---x--9--|
A |-0h7-------------0h7------x----x--x------x----x-----| 	
E |--------0--------------7-----9----x----9------x-----|

Verse 1

e |----------------------------------x-----------x-----|
B |----------------------------------x-----------x-----|
G |------9---9--(x2)----9----9----9--x--9----9---x--9--|
D |------9---9----------9----9----9--x--9----9---x--9--|
A |-0h7-------------0h7------x----x--x------x----x-----| 	
E |--------0--------------7-----9----x----9------x-----|

I hear something hanging on the wind
I see black smoke up around the bend

e |-------x----------x----------x--------------------|
B |-------x----------x----------x--------------------|
G |----9--x-9-----9--x--9-----9-x-9--(x3)--9------9--|
D |----9--x-9-----9--x--9-----9-x-9--------9------9--|
A |----x--x-------x--x--------x-x----------x----x----| 	
E |--7----x-----7----x------9---x--------9-----9-----|

I got my ticket
I want to go 

e |--------------------x---------x--------x------|
B |--------------------x---------x--------x------|
G |----9----9---9----9-x-9-----9-x-9----9-x-9----|
D |----9----9---9----9-x-9-----9-x-9----9-x-9----|
A |-7-----7-----x----x-x-------x-x------x-x------| 	
E |-----------7----9---x-----9---x----9---x------|

Home

e |----------------------------------x-----------x-----|
B |----------------------------------x-----------x-----|
G |------9---9--(x2)----9----9----9--x--9----9---x--9--|
D |------9---9----------9----9----9--x--9----9---x--9--|
A |-0h7-------------0h7------x----x--x------x----x-----| 	
E |--------0--------------7-----9----x----9------x-----|

The leaves have changed since I were to leave
Since the last time the train came through

Refrain

e |-------x----------x----------x--------------------|
B |-------x----------x----------x--------------------|
G |----9--x-9-----9--x--9-----9-x-9--(x3)--9------9--|
D |----9--x-9-----9--x--9-----9-x-9--------9------9--|
A |----x--x-------x--x--------x-x----------x----x----| 	
E |--7----x-----7----x------9---x--------9-----9-----|

I got my ticket and I want to go 

e |--------------------x---------x--------x------|
B |--------------------x---------x--------x------|
G |----9----9---9----9-x-9-----9-x-9----9-x-9----|
D |----9----9---9----9-x-9-----9-x-9----9-x-9----|
A |-7-----7-----x----x-x-------x-x------x-x------| 	
E |-----------7----9---x-----9---x----9---x------|

Home 

Interlude 

e |------------------------x---------------x---------------|
B |------------------------x---------------x---------------|
G |----9--------9--------9-x-9---9---9----9-x-9---9----9---|
D |----9-(x4)---9--(x4)--9-x-9---9---9----9-x-9---9----9---|
A |--6--------7----------x-x-----x---x----x-x-----x----x---| 	
E |--------------------7---x---7----7---6---x---6----6-----|

e |------------------------|
B |------------------------|
G |----9--------9----------|
D |----9-(x4)---9--(x4)----|
A |--6--------7------------| 	
E |------------------------|

Verse 2

e |----------------------------------x-----------x-----|
B |----------------------------------x-----------x-----|
G |------9---9--(x2)----9----9----9--x--9----9---x--9--|
D |------9---9----------9----9----9--x--9----9---x--9--|
A |-0h7-------------0h7------x----x--x------x----x-----| 	
E |--------0--------------7-----9----x----9------x-----|

My father's father's blood is on the track
A sweet refrain of sin from the past

Refrain

e |-------x----------x----------x--------------------|
B |-------x----------x----------x--------------------|
G |----9--x-9-----9--x--9-----9-x-9--(x3)--9------9--|
D |----9--x-9-----9--x--9-----9-x-9--------9------9--|
A |----x--x-------x--x--------x-x----------x----x----| 	
E |--7----x-----7----x------9---x--------9-----9-----|

I got my ticket and I'm going to go 

e |--------------------x---------x--------x------|
B |--------------------x---------x--------x------|
G |----9----9---9----9-x-9-----9-x-9----9-x-9----|
D |----9----9---9----9-x-9-----9-x-9----9-x-9----|
A |-7-----7-----x----x-x-------x-x------x-x------| 	
E |-----------7----9---x-----9---x----9---x------|

Home

Verse 2

e |----------------------------------x-----------x-----|
B |----------------------------------x-----------x-----|
G |------9---9--(x2)----9----9----9--x--9----9---x--9--|
D |------9---9----------9----9----9--x--9----9---x--9--|
A |-0h7-------------0h7------x----x--x------x----x-----| 	
E |--------0--------------7-----9----x----9------x-----|

The winding roads that led me here
Burn like coal and dry like tears

e |-------x----------x----------x--------------------|
B |-------x----------x----------x--------------------|
G |----9--x-9-----9--x--9-----9-x-9--(x3)--9------9--|
D |----9--x-9-----9--x--9-----9-x-9--------9------9--|
A |----x--x-------x--x--------x-x----------x----x----| 	
E |--7----x-----7----x------9---x--------9-----9-----|

So here's my hope
My tired soul

e |-------x----------x----------x--------------------|
B |-------x----------x----------x--------------------|
G |----9--x-9-----9--x--9-----9-x-9--(x3)--9------9--|
D |----9--x-9-----9--x--9-----9-x-9--------9------9--|
A |----x--x-------x--x--------x-x----------x----x----| 	
E |--7----x-----7----x------9---x--------9-----9-----|

So here's my ticket
I want to go

e |--------------------x---------x--------x------|
B |--------------------x---------x--------x------|
G |----9----9---9----9-x-9-----9-x-9----9-x-9----|
D |----9----9---9----9-x-9-----9-x-9----9-x-9----|
A |-7-----7-----x----x-x-------x-x------x-x------| 	
E |-----------7----9---x-----9---x----9---x------|

Home

e |--------------------x---------x--------x------|
B |--------------------x---------x--------x------|
G |----9----9---9----9-x-9-----9-x-9----9-x-9----|
D |----9----9---9----9-x-9-----9-x-9----9-x-9----|
A |-7-----7-----x----x-x-------x-x------x-x------| 	
E |-----------7----9---x-----9---x----9---x------|

Home
Home 

e |----------------------------------x-----------x-----|
B |----------------------------------x-----------x-----|
G |------9---9--(x2)----9----9----9--x--9----9---x--9--|
D |------9---9----------9----9----9--x--9----9---x--9--|
A |-0h7-------------0h7------x----x--x------x----x-----| 	
E |--------0--------------7-----9----x----9------x-----|




Добавлено: 29.02.2012
Другие материалы по этой песне:
  • Аккорды и текст

Страница создана 29.02.2012
http://primanota.ru/the-civil-wars/my-fathers-father-chords.htm
Привет, Гость.
Предлагаем пройти революционный курс по гитаре.
Подарок от PrimaNota.Ru, забирай!