PrimaNota.ru - самый крупный в мире бесплатный архив песенных текстов, аккордов, табулатур и нот


The Cinematics - Ready Now - таба, видео

Регистрация Запомнить меня
Войти через:  Facebook Google Twitter Vk Yandex Mail.ru

The Cinematics - Ready Now - таба, видео

Печатать
Просмотров: 115
Band: The Cinematics
Song: Ready Now
Album: A Strange Education
Tabbed by: Mixedican, Email dr.pepperdrinker_4life@yahoo.com

Tuning Standard: eBGDAE

There are two guitars in this one.  its kinda sad to see there arent any tabs for the 
yet, this band is awsome especailly live.

Intro

Guitar 1
e|--------------------------------------|
B|--------------------------------------|x9
G|--------------------------------------|
D|--------9-9-7-7---------9---9-9-7-----|
A|--------------------9-9---9-------9---|
E|--10-10---------5-5-------------------|

e|----------------------------------------|
B|----------------------------------------|
G|----------------------------------------|
D|----------------------------------------|
A|--------9-9-7-7-------9-9-7-7-----------|
E|--10-10---------10-10---------10-10-10--|

Guitar 2
e|-----------------|
B|--14-----14------|x7
G|--14-x8--14-x8---|
D|--12-----11------|
A|-----------------|
E|-----------------|

e|---------|
B|--14-----|
G|--14-x16-|
D|--12-----|
A|---------|
E|---------|

Verse

Guitar 2
e|--------------------|
B|--------------------|x6
G|--14-14-----14-16---|
D|--14-14-x7--14-16---|
A|--12-12-----12-14---|
E|--------------------|

Pre Chorus

Guitar 2
e|----------------|
B|----------------|
G|--16----18------|
D|--16-x8-18-x8---|
A|--14----16------|
E|----------------|

Chorus

Guitar 1
e|--------------------------------------|
B|--------------------------------------|x9
G|--------------------------------------|
D|--------9-9-7-7---------9---9-9-7-----|
A|--------------------9-9---9-------9---|
E|--10-10---------5-5-------------------|

e|----------------------------------------|
B|----------------------------------------|
G|----------------------------------------|
D|----------------------------------------|
A|--------9-9-7-7-------9-9-7-7-----------|
E|--10-10---------10-10---------10-10-10--|

Guitar 2
e|-----------------|
B|--14-----14------|x7
G|--14-x8--14-x8---|
D|--12-----11------|
A|-----------------|
E|-----------------|

e|---------|
B|--14-----|
G|--14-x16-|
D|--12-----|
A|---------|
E|---------|

Post Chorus

Guitar 1
e|--------9---------------9-----|
B|--7-5-7---7-5sb---7-5-7---7---|
G|----------------------------6-|
D|------------------------------|
A|------------------------------|
E|------------------------------|

Guitar 2
e|---------------------|
B|--14----16----11-----|
G|--14-x8-16-x8-11-x8--|
D|--12----14-----9-----|
A|---------------------|
E|---------------------|

Verse (same)
Chorus (same)

Bridge

Guitar 1
e|--------------|
B|--------------|
G|--6-7-7-9-9-6-|
D|--------------|
A|--------------|
E|--------------|

Solo Section

Guitar 1
e|--------------------------------------|
B|--------------------------------------|x4
G|--------------------------------------|
D|--------9-9-7-7---------9---9-9-7-----|
A|--------------------9-9---9-------9---|
E|--10-10---------5-5-------------------|

e|----------------------------------------|
B|----------------------------------------|
G|----------------------------------------|
D|----------------------------------------|
A|--------9-9-7-7-------9-9-7-7-----------|
E|--10-10---------10-10---------10-10-10--|

Guitar 2
e|-----------------|
B|--14-----14------|x4
G|--14-x4--14-x4---|
D|--12-----11------|
A|-----------------|
E|-----------------|

Chorus

Guitar 1
e|--------------------------------------|
B|--------------------------------------|x8
G|--------------------------------------|
D|--------9-9-7-7---------9---9-9-7-----|
A|--------------------9-9---9-------9---|
E|--10-10---------5-5-------------------|

e|----------------------------------------|
B|----------------------------------------|
G|----------------------------------------|
D|----------------------------------------|
A|--------9-9-7-7-------9-9-7-7-----------|
E|--10-10---------10-10---------10-10-10--|

Guitar 2
e|-----------------|
B|--14-----14------|x8
G|--14-x4--14-x4---|
D|--12-----11------|
A|-----------------|
E|-----------------|

e|---------|
B|--14-----|
G|--14-x16-|
D|--12-----|
A|---------|
E|---------|

Breakdown

Guitar 1
e|--------|
B|--------|
G|--------| listen for strumming pattern
D|--7-9---|
A|--------|
E|--------|

e|--------9---------------9-----|
B|--7-5-7---7-5sb---7-5-7---7---|
G|----------------------------6-|
D|------------------------------|
A|------------------------------|
E|------------------------------|

Guitar 2-plays this the whole time. let the last note ring.
e|-------|
B|--14---|
G|--14---|
D|--12---|
A|-------|
E|-------|

This is my first tab so i hope you enjoy it.  any suggestions or questions please email 
 other than that....ROCK ON!!!!

the website for them by the way is: http://www.thecinematics.com/
Добавлено: 28.04.2012
Другие материалы по этой песне:
  • Аккорды и текст

Страница создана 28.04.2012
http://primanota.ru/the-cinematics/ready-now-chords.htm
Привет, Гость.
Предлагаем пройти революционный курс по гитаре.
Подарок от PrimaNota.Ru, забирай!