PrimaNota.ru - самый крупный в мире бесплатный архив песенных текстов, аккордов, табулатур и нот


The Chiffons - Sweet Talking Guy - аккорды и текст, видео

Регистрация Запомнить меня
Войти через:  Facebook Google Twitter Vk Yandex Mail.ru

The Chiffons - Sweet Talking Guy - аккорды и текст, видео

Печатать
Просмотров: 48
Уроки эстрадного вокала в Санкт-Петербурге
Авторы: Eliot Greenberg, Barbara Baer, Robert Schwartz, Doug Morris

Sweet Talking Guy
The Chiffons
---------------------------------------------------------------------------
                Sweet Talking Guy - The Chiffons
---------------------------------------------------------------------------
Tabbed by: maguri
Tuning: Standard

The Chiffons 
Sweet Talking Guy (1966)
(Morris/Greenberg)

---------------------------------------------------------------------------

Bass in the verses (original key)

  B                                 F#/A#
  1 + 2 + 3 + 4 +  1 + 2 + 3 + 4 +  1 + 2 + 3 + 4 +  1 + 2 + 3 + 4 +
G|4-------------4-|4---------------|3-------------3-|3---------------|
D|------4-4-------|------4-4-------|------4-4-------|------4-4-------|
A|----------------|----------------|----------------|----------------|
E|----------------|----------------|----------------|----------------|
  Adim7                             E/G#
  1 + 2 + 3 + 4 +  1 + 2 + 3 + 4 +  1 + 2 + 3 + 4 +  1 + 2 + 3 + 4 +
G|2-------------2-|2---------------|1-------------1-|1---------------|
D|------4-4-------|------4-4-------|------2-2-------|------2-2-------|
A|----------------|----------------|----------------|----------------|
E|----------------|----------------|----------------|----------------|
  Em/G                              B/F#
  1 + 2 + 3 + 4 +  1 + 2 + 3 + 4 +  1 + 2 + 3 + 4 +  1 + 2 + 3 + 4 +
G|0-------------0-|0---------------|----------------|----------------|
D|------2---------|------2-2-------|4-------------4-|4---------------|
A|----------------|----------------|------6-6-------|------6-6-------|
E|----------------|----------------|----------------|----------------|
  F#7sus4                           F#7
  1 + 2 + 3 + 4 +  1 + 2 + 3 + 4 +  1 + 2 + 3 + 4 +  1 + 2 + 3 + 4 +
G|----------------|----------------|----------------|----------------|
D|4-------------4-|4-------------4-|4-------------4-|4---------------|
A|------4-4-------|------4-4-------|------4-4-------|------4-4-------|
E|----------------|----------------|----------------|----------------|

---------------------------------------------------------------------------

capo: 2nd fret
play: A
key: B

---------------------------------------------------------------------------
CHORDS

          E-A-D-G-B-e
Asus4     x-0-2-2-3-0
A/E       0-x-2-2-2-0
E7sus4    0-2-2-2-3-0
E7        0-2-2-1-3-0
E/G#      4-x-2-1-0-0
Gdim7     4-x-3-4-3-x
D/F#      2-x-0-2-3-2
Dm/F      1-x-0-2-3-1


---------------------------------------------------------------------------

INTRO
| A | % | Asus4 | % |
| A/E | % | E7sus4 | % |


VERSE
A
  Sweet talking guy
E/G#
 Talking sweet kinda lies
Gdim7
 Don't you believe him
           D/F#
And if you do he'll make you cry
Dm/F
 He'll send you flowers
               A/E
Then paint the town with another girl
       E7sus4
He's a sweet talkin' guy (Sweet talkin' guy)
         E7
But he's my kind of guy (Sweet talkin' guy)


VERSE
A
  Sweeter than sugar
E/G#                          [ Gdim7 ]
  Kisses like wine (Oh, he's so fine)
Gdim7
 Don't let him under your skin
D/F#                                     [ Dm/F ]
 'Cause you'll never win (No, you'll never win)
Dm/F
 Don't give him love today
  A/E
Tomorrow he's on his way
       E7sus4
He's a sweet talkin' guy (Sweet talkin' guy)
         E7
But he's my kind of guy (Sweet talkin' guy)


BREAK
C         F               Bb       E
 Why do I love him like I do-oo-oo-oo


SOLO
| A | % | E/G# | % | 
| Gdim7 | % | D/F# | % |
| Dm/F | % | A/E | % |

       E7sus4
He's a sweet talkin' (Sweet talkin')
E7sus4                       | E7 | % |
Sweet talkin' (Sweet talkin') guy


VERSE (variation)
A 
Stay away from him, stay away from him
                  E/G#
Don't believe his lyin'
        Gdim7 
(No no) No you'll never win, no you'll never win
               D/F#
Loser's end up cryin'
Dm/F
 Don't give him love today
  A/E
Tomorrow he's on his way
       E7sus4
He's a sweet talkin' (Sweet talkin')
E7sus4 
Sweet talkin' (Sweet talkin')
E7sus4 
Sweet talkin' (Sweet talkin')
E7sus4                       | E7 | % |
Sweet talkin' (Sweet talkin') guy


VERSE (variation) / OUTRO
A 
Stay 
 (Sweet, sweet, sweet talkin' guy)
          E/G#
Away from him
            (Sweet, sweet, sweet talkin' guy)
        Gdim7
No, no, no 
          (Sweet, sweet, sweet talkin' guy)
             D/F#
You'll never win
          (Sweet, sweet, sweet talkin' guy)
Dm/F
Oooooh ...

(fade out over OUTRO)
Добавлено: 10.10.2015
Другие материалы по этой песне:
  • Аккорды и текст

Страница создана 10.10.2015
http://primanota.ru/the-chiffons/sweet-talking-guy-chords.htm
Привет, Гость.
Предлагаем пройти революционный курс по гитаре.
Подарок от PrimaNota.Ru, забирай!