PrimaNota.ru - самый крупный в мире бесплатный архив песенных текстов, аккордов, табулатур и нот


The Chevin - Gospel - аккорды и текст, видео

Регистрация Запомнить меня
Войти через:  Facebook Google Twitter Vk Yandex Mail.ru

The Chevin - Gospel - аккорды и текст, видео

Печатать
Просмотров: 112
Gospel
The Chevin
-------------------------------------------------------------------------------
                             GOSPEL - The Chevin
-------------------------------------------------------------------------------
Tabbed by:ndermawan
E-mail:ndermawan@yahoo.com

Tuning: Standard

Another quality song from these boys from Leeds!

Always amazed at how Coyle Girelli can really sustain them notes D:

Lead guitar part and further explanation provided in appendix at the bottom!
=============================================================================
Chords Used:

    Em  C   G   D  D/A

e|--3---3---3--(2)-(2)--|
B|--3---3---3---3---3---|
G|--------------2---2---|
D|--2---2-------0---x---|
A|--2---3---2-------0---|
E|----------3-----------|



Intro:
-----
Em C G     Em C G


Verse:
------
          G                 G
There are songs beyond the sky
         C          G
Missing melodies to find
         C                Em
You got stars inside your eyes
         C          D
Tiny parts of holy lies
          G                 G
There are mountains on the sun
          C              G
Where the ancient horses run
              C                      Em
All tryin' to find where they went wrong
            C                   D
So they can see how far they've come


Chorus 1:
---------
        Em
I say
             C
Running river
         G          Em 
Take me home
             C
Running river
         G
Take me home


Verse 2:
--------
         G              G
You were born to live a life
         C                      G
Passing by you at the speed of light
               C                  Em
You're always wrong, and never right
           C         D
A spinning world and satellite
          G                 G
So sing a song for love and grace
        C                        G
Write a screenplay for the human race
          C           Em
A tale of tragedy and waste
             C                   D
To wipe that smile from off your face



Chorus 2:
---------
        Em
I say
             C
Running river
         G          Em 
Take me home
             C              G       Em
Back to the town that I came from
          C               G        
To how it was when I was young
                       Em
Under timeless skies
             C
Running river
          D
Take me home
                         G
Back to a world where I belong

Bridge:
-------
G                G
(Oh running river run run run)
G                G
(Oh running river run run, run)
C                G 
(Oh running river, oh running river)
Em                D
(Oh running river run run run)        X2



Chorus 3:
---------
Em               C
     Running river
         G          
Take me home
Em               C             G          
     Back to the town that I came from
Em             C               D/A            
     To how it was when I was young
         D    D    D    
Under timeless skies
Em               C
Oh running river run run run
D/A              D          D D D     
Oh running river run run run

Em          C
Running river           (Palm muted short strums)
D/A         D
Running river           (Palm muted short strums)
                        
Em          C
Running river           (Back to single strum)
G
Take me hooooooooome



==============================================================================



Lead Guitar - I put an extra space between counts for clarity. 
-----------   Timing should actually be consistent all the way through.


@VERSES - each count = 4 sets

    G        G        G        G        C        Em       C        D 
e|---------------------------------------------------------------------------|
B|--3-3-3-3--3-3-3-3--3-3-3-3--3-3-3-3--1-1-1-1--0-0-0-0---------------------|
G|---0-0-0-0--0-0-0-0--0-0-0-0--0-0-0-0--0-0-0-0--0-0-0-0-0-0-0-0--2-2-2-2---|
D|---------------------------------------------------------2-2-2-2--0-0-0-0--|
A|---------------------------------------------------------------------------|
E|---------------------------------------------------------------------------| X2


@CHORUS 1 - each count = 4 sets

    G        G        G        G        G        G        G        G
e|---------------------------------------------------------------------------|
B|--3-3-3-3--3-3-3-3--3-3-3-3--3-3-3-3--3-3-3-3--3-3-3-3--3-3-3-3--3-3-3-3---|
G|---0-0-0-0--0-0-0-0--0-0-0-0--0-0-0-0--0-0-0-0--0-0-0-0--0-0-0-0--0-0-0-0--|
D|---------------------------------------------------------------------------|
A|---------------------------------------------------------------------------|
E|---------------------------------------------------------------------------|


@CHORUS 2 - each count = 4 sets 
          - so 3 and a half bars of G + half bar of C picking


    G        G        G        G        G        G        G        G
e|---------------------------------------------------------------------------|
B|--3-3-3-3--3-3-3-3--3-3-3-3--3-3-3-3--3-3-3-3--3-3-3-3--3-3-3-3--3-3-3-3---|
G|---0-0-0-0--0-0-0-0--0-0-0-0--0-0-0-0--0-0-0-0--0-0-0-0--0-0-0-0--0-0-0-0--|
D|---------------------------------------------------------------------------|
A|---------------------------------------------------------------------------|
E|---------------------------------------------------------------------------|
    G        G        G        G        G        G        C        C
e|---------------------------------------------------------------------------|
B|--3-3-3-3--3-3-3-3--3-3-3-3--3-3-3-3--3-3-3-3--3-3-3-3--0-0-0-0--0-0-0-0---|
G|---0-0-0-0--0-0-0-0--0-0-0-0--0-0-0-0--0-0-0-0--0-0-0-0--2-2-2-2--2-2-2-2--|
D|---------------------------------------------------------------------------|
A|---------------------------------------------------------------------------|
E|---------------------------------------------------------------------------|


-Not really audible in Chorus 3, but you can play the Chorus 2 lead part during
 Chorus 3 if you want to.


==============================================================================

Appendix
--------

Though the Verse chords I put down is what sounds right as I play and sing along,
I do acknowledge that the bass notes, however, are infact:

          G                 D
There are songs beyond the sky
         G          D
Missing melodies to find
         C                B
You got stars inside your eyes
         G          A
Tiny parts of holy lies


and therefore verse chords can be interpreted and played as:

          G                 D
There are songs beyond the sky
         G          D
Missing melodies to find
         C                Em
You got stars inside your eyes
         G          D
Tiny parts of holy lies


I mulled over it a lot and decided to go with the version I have posted in
the verse section because of the lead guitar playing corresponding parts.

************************************

| /   slide up
| \   slide down
| h   hammer-on
| p   pull-off
| ~   vibrato
| +   harmonic
| x   Mute note
| b   Bend
| pb  Pre-bend
| br  Bend release
| pbr Pre-bend release
| brb Bend release bend

************************************
Добавлено: 24.07.2015
Другие материалы по этой песне:
  • Аккорды и текст

Страница создана 24.07.2015
http://primanota.ru/the-chevin/gospel-chords.htm
Привет, Гость.
Предлагаем пройти революционный курс по гитаре.
Подарок от PrimaNota.Ru, забирай!