PrimaNota.ru - самый крупный в мире бесплатный архив песенных текстов, аккордов, табулатур и нот


The Chariot - Vin Affleck Goodnight My Lady And A Forever Farewell - таба, видео

Регистрация Запомнить меня
Войти через:  Facebook Google Twitter Vk Yandex Mail.ru

The Chariot - Vin Affleck Goodnight My Lady And A Forever Farewell - таба, видео

Печатать
Просмотров: 92
Vin Affleck
The Chariot
Unsung EP
Drop B

FYI - "*" = P.H.
Basically, there are two 
wierd chords here, but they 
are thrown around quite a 
bit, just play around with
it until you get the hang of
this first part.

C#-----------------------------------------------------------------------|
G#------4-4-4-4-4-4-4-4-4-4-4-4-4-4-----4-4-4-4-4-4------12-12------12\0-|
E-------7-4-7-4-7-4-7-4-7-4-7-4-7-4-----7-4-7-4-7-4--/15--------15-------|
B------------------------------------------------------------------------|
F#--0-0-----------------------------0-0----------------------------------|
B---0-0-----------------------------0-0----------------------------------|

C#-------------------------------------------------------------------------|
G#--16-16-16-16-16-16-16-----16-16-16-16-16-16-16-----19-19-19-19-19-19-19-|
E--------------------------------------------------------------------------|
B--------------------------------------------------------------------------|
F#-----------------------0-0----------------------0-0----------------------|
B------------------------0-0----------------------0-0----------------------|

C#-----------------------------------------------------------------|
G#-----------------------------------------------------------------|
E------------------------------------------------------------------|
B-------------------------------------------------------------2*---|
F#--0-0-----------0-0-0-0------------0-0-----------0-0-0-0---------|
B---0-0-----------0-0-0-0------------0-0-----------0-0-0-0---------|

C#--------------------------------------------|
G#----------------9--9--9--9--9--9--9--9--9---|
E-----------------12-12-12-12-12-12-12-12-12--|
B---------------------------------------------|
F#--0-4-1-0-7-6-x-----------------------------|
B---0-4-1-0-7-6-x-----------------------------|

C#--------------------------------------------------------------------|
G#--------------------------------------------------------------------|
E---------------------------------------------------------------------|
B---------------------------------------------------------------------|
F#--0--------0--------0--------0-4-3-2-1-0---2*--0--------0---------0-|
B---0--------0--------0--------0-4-3-2-1-0-------0--------0---------0-|

C#-----------------------|
G#-----------------------|
E------------------------|
B------------------------|
F#--0-----2-----3-----4/-|
B---0-----3-----4-----5/-|

Sorry, no solo, I don't
have time. Check back soon
and I'll have it!
C#--------------------------|
G#--------------------------|
E---2---5-------------------|
B---2---5-------------------|(Rythym Behind Solo)
F#--0---3-------3---2-------|
B---------------3---2-------|

C#--------------------------------------------------------------------|
G#--------------------------------------------------------------------|
E---------------------------------------------------------------------|
B---------------------------------------------------------------------|
F#--1-1-1-1--------1-1-1-1--------1-1-1-0-------0-0-0-0-------0-0-0-0-|
B---1-1-1-1--------1-1-1-1--------1-1-1-0-------0-0-0-0-------0-0-0-0-|

Thank You!
Добавлено: 08.07.2013
Вам также может быть интересно:
Другие материалы по этой песне:
  • Аккорды и текст

Страница создана 08.07.2013
http://primanota.ru/the-chariot/vin-affleck-goodnight-my-lady-and-a-forever-farewell-chords.htm
Привет, Гость.
Предлагаем пройти революционный курс по гитаре.
Подарок от PrimaNota.Ru, забирай!