PrimaNota.ru - самый крупный в мире бесплатный архив песенных текстов, аккордов, табулатур и нот


The Chariot - They Faced Each Other - текст песни, таба, видео

Регистрация Запомнить меня
Войти через:  Facebook Google Twitter Vk Yandex Mail.ru

The Chariot - They Faced Each Other - текст песни, таба, видео

Печатать
Просмотров: 116
The Chariot
"They Faced Each Other"
The Fiancee

Tuning (Low to High) DADGBE


 (00:00-00:07)
e ------------------------------------|
b ------------------------------------|
g -5/4--5/4----------5/4-5/4----------|  x2
d -x-x--x-x----------x-x-x-x----------|
a -3/2--3/2-33322200-3/2-3/2-33322266-|
d ----------33322200---------33322266-|

 (00:07-00:16)                (00:16-00:17)
e -----------------       e --------|
b -----------------       b --------|
g -5-4-3-----------       g --5/2/5-|
d -x-x-x-----------  x4   d --x-x-x-|
a -3-2-1-333222000-       a --3/2/3-|
d -------333222000-       d --------|
  pm     *********

 (00:17-00:25)
e ------------------------------------|
b ------------------------------------|
g -5/4--5/4----------5/4-5/4----------|  x2
d -x-x--x-x----------x-x-x-x----------|
a -3/2--3/2-33322200-3/2-3/2-33322266-|
d ----------33322200---------33322266-|

 (00:25-00:36)
e ----------------------------------------------|
b ----------------------------------------------|
g ----------------------------------------------|
d -66666666------777666777666777-888-999-101010-| (Something like that. Its
a -66666666-(x4)-777666777666777-888-999-101010-|  easy to figure out on your
d -66666666------777666777666777-888-999-101010-|  own.)

 (00:36-00:49) Break it down now...                   (up)
e -------------                           e ------------0-|
g ------------- x4 (But 3rd time do this:)g ------------0-|
d -2-5-2-0-----                           d ------------0-|
a -2-5-2-0-----                           a --------------|
d -2-5-2-0-/17-                           d -2-5-2-0-/7---|

 (00:49-01:02)
e -------  ----------------------|
b -------  --5-3--5-3---5--5p0---| (String bending on all these 3s and 5s)
g -------  --5-3--5-3---5--5p0---|
d -2-5-2-  4--4--4-4-4/7--7------| (This second section
a -2-5-2-  4--4--4-4-4/7--7------|  is played 3 times)
d -2-5-2-  4--4--4-4-4/7--7------|

 (01:02-01:13)
e -----0-----0-------0-------0-|
b --3--0--3--0---5---0---5---0-|
g --3--0--3--0---5---0---5---0-| x2
d -4--4--4--4--7---7---7---7---|
a -4--4--4--4--7---7---7---7---|
d -4--4--4--4--7---7---7---7---|

 (01:13-01:17)                  (01:17-01:26)
e ---------------------       e ------------------------------|
b ------4-----------6/-       b ------------------------------|
g ---5----5-----7------       g ------------------------------|
d -7---7------9---9----       d ---5---3---5---3-----5----5---|  x2
a ---------------------       a ------------------------------|
d ---------------------       d -4---4---4---4---4/7----7---7-|

 (01:26-01:36)
e -----0-----0-------0-------0-|
b --3--0--3--0---5---0---5---0-|
g --3--0--3--0---5---0---5---0-| x2
d -4--4--4--4--7---7---7---7---|
a -4--4--4--4--7---7---7---7---|
d -4--4--4--4--7---7---7---7---|

 (01:36-01:45)
e --------------------|
b --5-3--5-3---5--5p0-|
g --5-3--5-3---5--5p0-| x2
d -4-4--4-4-4/7--7----|
a -4-4--4-4-4/7--7----|
d -4-4--4-4-4/7--7----|

 (01:45-01:56)
e -----0-----0-------0-------0-|
b --3--0--3--0---5---0---5---0-|
g --3--0--3--0---5---0---5---0-| x2
d -4--4--4--4--7---7---7---7---|
a -4--4--4--4--7---7---7---7---|
d -4--4--4--4--7---7---7---7---|

 (01:56-01:58)
e ---------|
b ---5---3-|
g ---5---3-|
d -4---4---|
a -4---4---|
d -4---4---|


Fin.
Добавлено: 29.07.2013
Другие материалы по этой песне:
  • Аккорды и текст

Страница создана 10.03.2012
http://primanota.ru/the-chariot/they-faced-each-other-chords.htm
Привет, Гость.
Предлагаем пройти революционный курс по гитаре.
Подарок от PrimaNota.Ru, забирай!