PrimaNota.ru - самый крупный в мире бесплатный архив песенных текстов, аккордов, табулатур и нот


The Chariot - Then Came To Kill - текст песни, таба, видео

Регистрация Запомнить меня
Войти через:  Facebook Google Twitter Vk Yandex Mail.ru

The Chariot - Then Came To Kill - текст песни, таба, видео

Печатать
Просмотров: 179
Уроки эстрадного вокала в Санкт-Петербурге
Then Came To Kill
The Chariot

(0:42 - 1:04)
Gradually Bend the 5's
E--0-0-0-0-0-0-0-0-0-0-0-0-0-0-0-0-0------0-0-0-0-0--|
B--5-5-5-5-5-5-5-5-5-5-5-5-5-4-4-4-4-9-9--5-5-5-5-5--|
G----------------------------------------------------|
D----------------------------------------------------|
A----------------------------------------------------|
E----------------------------------------------------|

(1:04 - 1:19)
E-------------------|
B-------------------|
G--5-5\-------------|
D--x-x\-------------|
A--3-3\-x-x---------|
E-------x-x--0-0-0--|

(1:19 - 1:30)
E----------------------------------------------|
B-----4----------4----------4-----13-----------|
G-----7----------7----------7-----16-----------|
D----------------------------------------------|
A--1-----1-3-2-1---------------0------3--2--1--|
E--1-----1-3-2-1----0-0-0-0----0------3--2--1--|

(1:31 - 1:46)
E-------------------------------|
B---------------------------6-5-|
G---------3-4-5---------6-5-----|
D-------------------------------|
A--0-0-0---------0-0-0----------|
E--0-0-0---------0-0-0----------|

(1:47 - 2:22)
E----------------------------------------------------------------------|
B----------------------------------------------------------------------|
G--15-15/16--12-12-12-14-14-14-10-13-9---5-5\-----------5-5\-----------|
D----------------------------------------x-x\-----------x-x\-----------|
A----------------------------------------3-3\--0-0-0-0--3-3\--0-0-0-0--|
E----------------------------------------------0-0-0-0--------0-0-0-0--|

(2:23 - 2:24)
E------------------------|
B------------------------|
G------------------------|
D--13-13-13-13-13-13-13--|
A--11-11-11-11-11-11-11--|
E------------------------|

(2:25 - 2:55)
E--------------------------------------------------------------------|
B--------------------------------------------------------------------|
G--5----------------------------------4------------------------------|
D--5----------------------------------4------------------------------|
A--3----------------------------------2------------------------------|
E--------------------------------------------------------------------|

(2:55 - 2:59)
E----------------------|
B----------------------|
G----------------------|
D----------------------|
A--0-------------------|
E--0-------------------|

(3:00 - 3:29)
E---------------------------------------------------|
B---------------------------------------------------|
G--5-----------4---------5-----------4------5-------|
D--5-----------4---------5-----------4------5-------|
A--3-----------2----2----3-----------2------3-------|
E-------------------2-------------------------------|

(3:30 - 3:33)
E----------------------|
B----------------------|
G----------------------|
D----------------------|
A--0-------------------|
E--0-------------------|

(3:34 - 3:57)
E---------------------------------------------------|
B--7-7-7-7-7-7-8-8-8-8-8-8--------------------------|
G---------------------------------------------------|
D---------------------------------------------------|
A--------------------------2-2-2-2-2-2-2-2-2-2-2-2--|
E--------------------------2-2-2-2-2-2-2-2-2-2-2-2--|

E---------------------------------------------------|
B--7-7-7-7-7-7-8-8-8-8-8-8--------------------------|
G---------------------------------------------------|
D---------------------------------------------------|
A--------------------------2-2-2-2-2-2-3-3-3-3-3-3--|
E--------------------------2-2-2-2-2-2-3-3-3-3-3-3--|

(3:58 - 4:02)
E-----------------------------|
B-----------------------------|
G-----------------------------|
D-----------------------------|
A--0-0-0-0-0-0-0-0-0-0-0-0-0--|
E--0-0-0-0-0-0-0-0-0-0-0-0-0--|

(4:03 - 4:30)
E--0-0-0-0-0-0-0-0-0-0-0-0-0-0-0-0-0-0-0-0-0-0-0-0-0-0-0--|
B--5-5-5-5-5-5-5-5-5-5-5-5-5-5-5-5-5-5-5-5-5-5-5-5-5-5-5--|
G---------------------------------------------------------|
D---------------------------------------------------------|
A---------------------------------------------------------|
E---------------------------------------------------------|

That's all folks! Thanks!
Добавлено: 21.10.2013
Другие материалы по этой песне:
  • Аккорды и текст

Страница создана 29.03.2012
http://primanota.ru/the-chariot/then-came-to-kill-chords.htm
Привет, Гость.
Предлагаем пройти революционный курс по гитаре.
Подарок от PrimaNota.Ru, забирай!