PrimaNota.ru - самый крупный в мире бесплатный архив песенных текстов, аккордов, табулатур и нот


The Chariot - The Heavens - таба, видео

Регистрация Запомнить меня
Войти через:  Facebook Google Twitter Vk Yandex Mail.ru

The Chariot - The Heavens - таба, видео

Печатать
Просмотров: 103
The Heavens
The Chariot
Long Live
Drop B (BF#BEG#C#)

There's a long ass drum intro with some random bends, but I never bother playing that bit.

After the long scream. Listen for the timing in this bit, it's weird.
C#--------------------------------------|
G#--------------------------------------|
E---------------------------------------|
B---2---3-4---5-6-7---8-9-10-11-12-13\--|
F#--2---3-4---5-6-7---8-9-10-11-12-13\--|
B---2---3-4---5-6-7---8-9-10-11-12-13\--| x4

"We cannot delete it..."
C#--------------------------------------|
G#--------------------------------------|
E---------------------------------------|
B---------------------------------------|
F#--0-12-0-12-12---0-12-0-0-11-13-12----|
B---0-12-0-12-12---0-12-0-0-11-13-12----|

C#-----------------------------------------|
G#-----------------------------------------|
E------------------------------------------|
B------------------------------------------|
F#--0-13p12-0-12-12---0-12-0-0-11-13-12----|
B---0-13p12-0-12-12---0-12-0-0-11-13-12----| x6


C#------------------------|
G#------------------------|
E-------------------------|
B-------------------------|
F#--13p12-11h12--12-12----|
B---13p12-11h12--12-12----|

That's all there is to it.

Long live!!
Добавлено: 10.07.2013
Другие материалы по этой песне:
  • Аккорды и текст

Страница создана 10.07.2013
http://primanota.ru/the-chariot/the-heavens-chords.htm
Привет, Гость.
Предлагаем пройти революционный курс по гитаре.
Подарок от PrimaNota.Ru, забирай!