PrimaNota.ru - самый крупный в мире бесплатный архив песенных текстов, аккордов, табулатур и нот


The Chariot - The Company, The Comfort, The Grave - текст песни, таба, видео

Регистрация Запомнить меня
Войти через:  Facebook Google Twitter Vk Yandex Mail.ru

The Chariot - The Company, The Comfort, The Grave - текст песни, таба, видео

Печатать
Просмотров: 117
The Company, The Comfort, The Grave
The Chariot
Unsung EP
Drop B

Riff A
C#---------------------------|
G#---------------------------|
E----------------------------|
B----------------------------|
F#------3p0---------3p0------|
B---3p0-----3p0-3p0-----3p0--|

Riff B
C#---------------------------------------------------------------|
G#---------------------------------------------------------------|
E----------------------------------------------------------------|
B----------------------------------------------------------------|
F#--0-------3p0-2p0-----0-------3p0-2p0-----0-------3p0-2p0------|
B---0---------------3p0-0---------------3p0-0---------------3p0--|

Riff C
C#------------------------------------------------|
G#------------------------------------------------|
E-------------------------------------------------|
B-------------------------------------------------|
F#--3-------------------2---------1-----------0---|
B---3-------------------2---------1-----------0---|

(Riff A)
(Riff C)

(Synth)

Riff D
C#------------------------------|
G#--1--2--3--4--5--6--7--8------|
E-------------------------------|
B-------------------------------|
F#-----Keep picking each note---|
B-------------------------------|

Last BIG Riff
C#-----------------------------------------------------|
G#-----------------------------------------------------|
E------------------------------------------------------|
B---1--------1--------1--------------------------------|
F#--1---x-x--1---x-x--1---x-x-------2----3-------------|
B---0---x-x--0---x-x--0---x-x--1-0----3----4-----------|

C#--------------------------------------------------------|
G#--------------------------------------------------------|
E---------------------------------------------------------|
B---1--------1--------1-----------------------------------|
F#--1---x-x--1---x-x--1---x-x-------3----2----1-----------|
B---0---x-x--0---x-x--0---x-x--1-0----4----3--------------|

C#---------------------------------------------------------|
G#---------------------------------------------------------|
E----------------------------------------------------------|
B---1--------1--------1------------------------------------|
F#--1---x-x--1---x-x--1---x-x-------1--11\4--7\2-----------|
B---0---x-x--0---x-x--0---x-x--1-0-----11\4--7\2-----------|

C#----------------------------------------------------------------------|
G#----------------------------------------------------------------------|
E-----------------------------------------------------------------------|
B---1--------1--------1-------------------------------------------------|
F#--1---x-x--1---x-x--1---x-x-------1-2---3---4---5---6-----------------|
B---0---x-x--0---x-x--0---x-x--1-0------3---4---5---6---7---------------|

C#-------|
G#-------|
E--------|
B---0----|
F#--0----|
B---0----|

Thanks!

END
Добавлено: 11.06.2013
Другие материалы по этой песне:
  • Аккорды и текст

Страница создана 28.03.2012
http://primanota.ru/the-chariot/the-company-the-comfort-the-grave-chords.htm
Привет, Гость.
Предлагаем пройти революционный курс по гитаре.
Подарок от PrimaNota.Ru, забирай!