PrimaNota.ru - самый крупный в мире бесплатный архив песенных текстов, аккордов, табулатур и нот


The Chariot - The Bullet Never Lies And Time Will Prove All Things An Allegory Of Unfaithful Jerusalem - таба, видео

Регистрация Запомнить меня
Войти через:  Facebook Google Twitter Vk Yandex Mail.ru

The Chariot - The Bullet Never Lies And Time Will Prove All Things An Allegory Of Unfaithful Jerusalem - таба, видео

Печатать
Просмотров: 104
|---------------------------------------------|
|     The Bullet Never Lies - The Chariot     |
|---------------------------------------------|

Drop C (C-G-C-F-A-D)

(0:00 - 0:25)
D-----------------------------------------------------------|
A-----------------------------------------------------------|
F-----------------------------------------------------------|
C-----------------------------------------------------------|
G--------1-(1)---------0-(0)---------1-(1)---------3--2--1--|
C--0-3-0---------0-3-0---------0-3-0---------0-3-0-3--2--1--|

(0:26 - 0:44) and (0:51 - 1:00)
D--------------------------|
A--------------------------|
F--------------------------|
C--------------------------|
G--1-1-1-2---0-1-0--0-0-0--|
C--1-1-1-2---0-1-0--0-0-0--|

(0:45 - 0:50)
D--------------------------------------|
A--4--------4--------4--------4--------|
F--7--------7--------7--------7--------|
C--------------------------------------|
G--------------------------------------|
C--------------------------------------|

(1:01 - 1:17)
D-----------------------------------------------|
A--------------------------5----5-5----5---5-5--|
F--------------------------8----8-8----8---8-8--|
C-----------------------------------------------|
G-----------------------------------------------|
C--x-x-x-x-x-x-x-x-x-x--000--000----000-000-----|

(1:18 - 1:26)
D----------6-----5-----4-----3-----2-----1-----0-------|
A--------7-----6-----5-----4-----3-----2-----1-----0-4-|
F------8-----7-----6-----5-----4-----3-----2-----1-----| (Not Sure Here)
C------------------------------------------------------|
G--2---------------------------------------------------|
C--2---------------------------------------------------|

(1:27 - 1:55)
D------------------------------------------|
A------------------------------------------|
F------------------------------------------|
C------------------------------------------|
G--0-2-0-3--0-2-0-3--0-2-0-3--0-2-0-3-2-1--|
C--0-2-0-3--0-2-0-3--0-2-0-3--0-2-0-3-2-1--|

(1:56 - 2:51)
D----------------------------------------|
A----------8-8-8-8---8-8-8-8---7-7-7-7---|
F----------x-x-x-x---x-x-x-x---x-x-x-x---|
C----------x-x-x-x---x-x-x-x---x-x-x-x---|
G----------5-5-5-5---5-5-5-5---4-4-4-4---|
C--0---0---------------------------------|

Thank you! PLZ rate + comment! :)
Добавлено: 26.10.2013
Другие материалы по этой песне:
  • Аккорды и текст

Страница создана 26.10.2013
http://primanota.ru/the-chariot/the-bullet-never-lies-and-time-will-prove-all-things-an-allegory-of-unfaithful-jerusalem-chords.htm
Привет, Гость.
Предлагаем пройти революционный курс по гитаре.
Подарок от PrimaNota.Ru, забирай!