PrimaNota.ru - самый крупный в мире бесплатный архив песенных текстов, аккордов, табулатур и нот


The Chariot - Daggers - текст песни, таба, видео

Регистрация Запомнить меня
Войти через:  Facebook Google Twitter Vk Yandex Mail.ru

The Chariot - Daggers - текст песни, таба, видео

Печатать
Просмотров: 143
Daggers
The Chariot
Wars and Rumors of Wars
Drop B

E----------------------------------------|
B----------------------------------------|
G--2-2-2-2/5--2-2-2-2/5--2-7-7-7-7--5-5--|
D--2-2-2-2/5--2-2-2-2/5--2-7-7-7-7--5-5--|
A--0-0-0-0/3--0-0-0-0/3--0-5-5-5-5--3-3--|
E----------------------------------------|

E-----------------------------|
B-------------------------9---|
G-------------------------12--|
D--1-1-1-0--------------------|
A-----------------------------|
E----------2-2-2-2-1-1-1------|

Gradually Bend
E--16b-16b-16b-16b-16b-16b--15b-15b-15b-15b-15b-15b--|
B--18b-18b-18b-18b-18b-18b--17b-17b-17b-17b-17b-17b--|
G----------------------------------------------------|
D----------------------------------------------------|
A----------------------------------------------------|
E----------------------------------------------------|

E-----16----------16----------15----------15-------------16-15----|
B--18----18----18----18----17----17----17----17----------------17-|
G-----------------------------------------------------------------|
D------------------------------------------------repeat-----------|
A-----------------------------------------------------------------|
E-----------------------------------------------------------------|

Figure out the strumming here..

E-----------------------------------------|
B-----------------------------------------|
G-----------------------------------------|
D--10------------------------9----------7-|
A--8-------------------------7----------5-|
E-----------------------------------------|

(w/ random feedback)
E-----------|
B-----------|
G-----------|
D--3-3-3-2--|
A--3-3-3-2--|
E--3-3-3-2--|

E--16b-16b-16b-16b-16b-16b-15b-15b-15b-15b-15b-15b--|
B--18b-18b-18b-18b-18b-18b-17b-17b-17b-17b-17b-17b--|
G---------------------------------------------------|
D---------------------------------------------------|
A---------------------------------------------------|
E---------------------------------------------------|

There we go. Thanks!
Добавлено: 12.10.2013
Другие материалы по этой песне:
  • Аккорды и текст

Страница создана 12.10.2013
http://primanota.ru/the-chariot/daggers-chords.htm
Привет, Гость.
Предлагаем пройти революционный курс по гитаре.
Подарок от PrimaNota.Ru, забирай!