PrimaNota.ru - самый крупный в мире бесплатный архив песенных текстов, аккордов, табулатур и нот


The Chameleons - As High as You Can go - текст песни, бас-таба, видео

Регистрация Запомнить меня
Войти через:  Facebook Google Twitter Vk Yandex Mail.ru

The Chameleons - As High as You Can go - текст песни, бас-таба, видео

Печатать
Просмотров: 86
Tabbed by: bassm99
E-mail: alanmatthews1966@yahoo.co.uk

Tuning: E, A, D, G

"As High As You Can Go" from the album "Script Of The Bridge" (1983)
Written by Burgess/Fielding/Lever/Smithies

Bass Starts 0:08

Intro: (Play 8 Times)
 
G|--------------------------------------------------------------------------|
D|--------------------------------------------------------------------------|
A|--2222-0-2-0-2------------------------------------------------------------|
E|-----------------5555-0-5-0-5---------------------------------------------|

Verse: (Play 8 Times)

G|--------------------------------------------------------------------------|
D|--------------------------------------------------------------------------|
A|--2222-0-2-0-2------------------------------------------------------------|
E|-----------------5555-0-5-0-5---------------------------------------------|

Chorus:

G|--------------------------------------------------------------------------|
D|--------------------------------------------------------------------------|
A|--------------------------------------------------------------------------|
E|--33333333-(x2)-55555555-(x2)-33333333-(x2)-55555555-(x1)-22222222-(x1)---|

Repeat Intro: (Play Twice)

Repeat Verse:

Repeat Chorus:

Bridge: No Bass (2:11 - 2:41)

Repeat Chorus:

Ending: (Play 8 Times)

G|--------------------------------------------------------------------------|
D|--------------------------------------------------------------------------|
A|--2---2-0-----------------------------------------------------------------|
E|--------------------------------------------------------------------------|

End:

G|--------------------------------------------------------------------------|
D|--------------------------------------------------------------------------|
A|--2-----------------------------------------------------------------------|
E|--------------------------------------------------------------------------|
Добавлено: 02.08.2015
Другие материалы по этой песне:
  • Аккорды и текст

Страница создана 22.06.2012
http://primanota.ru/the-chameleons/as-high-as-you-can-go-chords.htm
Привет, Гость.
Предлагаем пройти революционный курс по гитаре.
Подарок от PrimaNota.Ru, забирай!