PrimaNota.ru - самый крупный в мире бесплатный архив песенных текстов, аккордов, табулатур и нот


The Centurions - Bullwinkle Part 2 - таба, бас-таба, видео

Регистрация Запомнить меня
Войти через:  Facebook Google Twitter Vk Yandex Mail.ru

The Centurions - Bullwinkle Part 2 - таба, бас-таба, видео

Печатать
Просмотров: 1136
Уроки эстрадного вокала в Санкт-Петербурге
----------------------------------------------------------------------------
                             BULLWINKLE PART II - The Centurions
----------------------------------------------------------------------------
Tabbed by: Jonathan Migliori
Email: jonathan.migliori@gmail.com

http://en.wikipedia.org/wiki/The_Centurions

Chords (throughout):

C#m   F#m  C#m  G#m   F#m   G#m   C#m


1st Guitar Solo :

E---------------------------------------------------------------------|
B---------------------------------------------------------------------|
G---------------------------------------------------------9--6--------|
D------2----4-6-4-2-----------------------2--4-4---4---/6---------6---|
A---4-----------------4-4---2--4-4----4-------------------------------|
E---------------------------------------------------------------------|


E-------------------------------------------------------|
B-------------------------------------------------------|
G-------------------------------------------------------|
D-------4--2------2--4--6---6-6--4-4--2-4-2-------------|
A-4--2---------4-----------------------------4-----2----|
E-----------------------------------------------------4-|


Saxophone Solo :

E---------------------------|-------------------------|---------------------|
B---------------------------|-------------------------|---------------------|
G---------------------------|-------------------------|---------------------|
D---6-6-6-6---6----4--2-----|---6-6-6---6----4--2-----|---6--4--2-----------|
A------------------------4--|----------------------4--|------------4--2--4--|
E---------------------------|-------------------------|---------------------|


E---------------------|-----------------------------------------------------|
B---------------------|-----------------------------------------------------|
G------4--------------|-----------------------------------------------------|
D---6-----6--42-------|--6--6--4--2--4-----6--/9---9b11b9----6--4--2--------|
A------------------4--|-----------------------------------------------4-----|
E---------------------|-----------------------------------------------------|


E------------------------|----------------------------------------------------|
B------------------------|----------------------------------------------------|
G--6-6-6--4--------------|----------------------------------------------------|
D------------6--4--2-----|-----6--4--2---6--4----2-----4--4--2------2--4--6---|
A---------------------4--|--4-----------4------------4----------4-4-----------|
E------------------------|----------------------------------------------------|


E-------------------------------------------------|
B-------------------------------------------------|
G-------------------------------------------------|
D--6---6--4--2--4---------2-----2--4--6--4--2-----|
A----------------------4-----4-----------------4--|
E-------------------------------------------------|


2nd Guitar Solo :

E------------------------------------------------------------------------|
B------------------------------------------------------------------------|
G------------------------------------------------------------------------|
D------2-----4-6-4-2---------------2--2/4------6--4/6--4--2----2-----2/4-|
A---4-----------------4-----2--4-----------------------------4----4------|
E------------------------4-----------------------------------------------|


E---------------------------------------------------------------------|
B---------------------------------------------------------------------|
G---------------------------------------------------------------------|
D----6--4--2---------------------------------6--6-------------4--2----|
A-------------4--2--4--2--4--2---4----4-4-4----------4--4--4--------4-|
E---------------------------------------------------------------------|


E---------------------------------------4---|
B---------------------------------------5---|
G---------------------------------------6---|
D---4--2-----4--2-----4--2--------------6---|
A---------4--------4--------4--4--2-----4---|
E-----------------------------------4---4---|
Добавлено: 22.02.2012
Другие материалы по этой песне:

Страница создана 22.02.2012
http://primanota.ru/the-centurions/bullwinkle-part-2-chords.htm
Привет, Гость.
Предлагаем пройти революционный курс по гитаре.
Подарок от PrimaNota.Ru, забирай!