PrimaNota.ru - самый крупный в мире бесплатный архив песенных текстов, аккордов, табулатур и нот


The Cats - Magical Mystery Morning - бас-таба, видео

Регистрация Запомнить меня
Войти через:  Facebook Google Twitter Vk Yandex Mail.ru

The Cats - Magical Mystery Morning - бас-таба, видео

Печатать
Просмотров: 102
Уроки эстрадного вокала в Санкт-Петербурге
Tabbed by: 6METAL6BASSIST6
E-mail: petergriffinav@gmail.com

Tuning: EADG

G|----------------7---7---------------------------5---7---5-------|
D|------------7---------------7---------------7---------------7---| x2
A|5-------------------------------5-------------------------------|
E|----------------------------------------------------------------|

0:08

G|----------------7---7---------------------------5---7---5-------|
D|------------7---------------7---------------7---------------7---| x3
A|5-------------------------------5-------------------------------|
E|----------------------------------------------------------------|

0:20

G|------------------------------------7---------------7-----------|
D|5-----------5---------------4---5-----------4-/-5-------5---6---|
A|----------------5-----------------------------------------------|
E|----------------------------------------------------------------|

G|------------------------------------------------7---7-----------|
D|7-----------7-----------7-------------------7---------------7---|
A|----------------7---------------5-------------------------------|
E|----------------------------------------------------------------|

G|----------------5---7---5-------|
D|------------7---------------7---|
A|5-------------------------------|
E|--------------------------------|

0:30

G|----------------7-------------------------------5---7---5-------|
D|------------7---------------7---------------7---------------7---|
A|5-------------------------------5-------------------------------|
E|----------------------------------------------------------------|

G|----------------7---7---------------------------5---7---5-------|
D|------------7---------------7---------------7---------------7---| x2
A|5-------------------------------5-------------------------------|
E|----------------------------------------------------------------|

0:41

G|------------------------------------7---------------7-----------|
D|5-----------5---------------4---5-----------4-/-5-------5---6---|
A|----------------5-----------------------------------------------|
E|----------------------------------------------------------------|

G|------------------------------------------------7---7-----------|
D|7-----------7-----------7-------------------7---------------7---|
A|----------------7-----------7---5-------------------------------|
E|----------------------------------------------------------------|

G|----------------7---7-----------|
D|------------7-------------------|
A|5-------------------------------|
E|--------------------------------|

0:51

G|----------------------------------------------------------------|
D|7---7-------7---------------6---7---7-------7-----------7---8---|
A|----------------7---7---------------------------7---7-----------|
E|----------------------------------------------------------------|

G|----------------------------------------------------------------|
D|9---9-------9---------------8-/-9---9-------9-----------9---7---|
A|----------------9---9---------------------------9---9-----------|
E|----------------------------------------------------------------|

G|----------------------------------------------------------------|
D|7---7-------7-------------------7---7-------7-----------7---8---|
A|----------------7---7-------7-------------------7---7-----------|
E|----------------------------------------------------------------|

G|----------------------------------------------------------------|
D|9---9-------9-------------------9---9-------9-------------------|
A|----------------9---9-------9-------------------9---9-------9---|
E|----------------------------------------------------------------|

1:06

G|----------------------------------------------------------------|
D|9-----------9-------------------9-----9-----11--12----11----9---|
A|----------------9-----------9-----------------------------------|
E|----------------------------------------------------------------|

G|----------------------------------------------------------------|
D|7-----------7-------------------7-----7-----9---11----9-----7---|
A|----------------7-----------7-----------------------------------|
E|----------------------------------------------------------------|

G|----------------------------------------------------------------|
D|9-----------9-------------------9-----9-----11--12----11----9---|
A|----------------9-----------9-----------------------------------|
E|----------------------------------------------------------------|

G|----------------------------------------------------------------|
D|4-----------4-------------------4---4-------4-----------4-------|
A|----------------4-----------4-------------------4---------------|
E|----------------------------------------------------------------|

G|----------------7-------------------------------5---7---5-------|
D|------------7---------------7---------------7---------------7---|
A|5-------------------------------5-------------------------------|
E|----------------------------------------------------------------|

1:27

G|----------------7---7---------------------------5---7---5-------|
D|------------7---------------7---------------7---------------7---| x3
A|5-------------------------------5-------------------------------|
E|----------------------------------------------------------------|

1:38

G|------------------------------------7---------------7-----------|
D|5-----------5---------------4---5-----------4-/-5-------5---6---|
A|----------------5-----------------------------------------------|
E|----------------------------------------------------------------|

G|------------------------------------------------7---7-----------|
D|7-----------7-----------7-------------------7---------------7---|
A|----------------7---------------5-------------------------------|
E|----------------------------------------------------------------|

G|----------------7---7-----------|
D|------------7-------------------|
A|5-------------------------------|
E|--------------------------------|

1:48

G|----------------------------------------------------------------|
D|7---7-------7---------------6---7---7-------7-----------7---8---|
A|----------------7---7---------------------------7---7-----------|
E|----------------------------------------------------------------|

G|----------------------------------------------------------------|
D|9---9-------9-------------------9---9-------9-----------9---7---|
A|----------------9---9-------9-------------------9---9-----------|
E|----------------------------------------------------------------|

G|----------------------------------------------------------------|
D|7---7-------7-------------------7---7-------7-----------7---8---|
A|----------------7---7-------7-------------------7---7-----------|
E|----------------------------------------------------------------|

G|----------------------------------------------------------------|
D|9---9-------9-------------------9---9-------9-------------------|
A|----------------9---9-------9-------------------9---9-------9---|
E|----------------------------------------------------------------|

2:03

G|----------------------------------------------------------------|
D|9-----------9-------------------9-----9-----11--12----11----9---|
A|----------------9-----------9-----------------------------------|
E|----------------------------------------------------------------|

G|----------------------------------------------------------------|
D|7-----------7-------------------7-----7-----9---11----9-----7---|
A|----------------7-----------7-----------------------------------|
E|----------------------------------------------------------------|

G|----------------------------------------------------------------|
D|9-----------9-------------------9-----9-----11--12----11----9---|
A|----------------9-----------9-----------------------------------|
E|----------------------------------------------------------------|

G|----------------------------------------------------------------|
D|4-----------4-------------------4---4-------4-----------8-------|
A|----------------4-----------4-------------------4---------------|
E|----------------------------------------------------------------|

2:20

G|----------------------------------------------------------------|
D|9-----------9-------------------9-----9-----11--12----11----9---|
A|----------------9-----------9-----------------------------------|
E|----------------------------------------------------------------|

G|----------------------------------------------------------------|
D|7-----------7-------------------7-----7-----9---11----9-----7---|
A|----------------7-----------7-----------------------------------|
E|----------------------------------------------------------------|

G|----------------------------------------------------------------|
D|9-----------9-------------------9-----9-----11--12----11----9---|
A|----------------9-----------9-----------------------------------|
E|----------------------------------------------------------------|

G|----------------------------------------------------|
D|4-----------4-------------------4---4-------4-------| fades out here.
A|----------------4-----------4-------------------4---|
E|----------------------------------------------------|
Добавлено: 14.02.2016
Вам также может быть интересно:
Другие материалы по этой песне:
  • Аккорды и текст

Страница создана 14.02.2016
http://primanota.ru/the-cats/magical-mystery-morning-chords.htm
Привет, Гость.
Предлагаем пройти революционный курс по гитаре.
Подарок от PrimaNota.Ru, забирай!