PrimaNota.ru - самый крупный в мире бесплатный архив песенных текстов, аккордов, табулатур и нот


The Cat Empire - Song For The Day - текст песни, бас-таба, видео

Регистрация Запомнить меня
Войти через:  Facebook Google Twitter Vk Yandex Mail.ru

The Cat Empire - Song For The Day - текст песни, бас-таба, видео

Печатать
Просмотров: 145
Авторы музыки: Oliver McGill, Felix Riebl
Авторы текста: Oliver McGill, Felix Riebl
**This is the version I've tabbed off "The Sun" album, and not the other version on 
"Cities". The bass on "The Sun" album is so much better to hear!**

http://en.wikipedia.org/wiki/The_Sun_(Cat_Empire_album)

Some of the tab can be played over the newer version on "Cities" but not much! 
Instrumentals and other parts are just a combination of the verse and chorus tabs, pretty easy to 
work out... Have fun!

VERSE
"Awake..."
G|---------------------------------|
D|-0-0-0-2-3-----------------------|
A|------------0-h1-1-3-3-----------|  x3
E|---------------------------------|

G|---------------------------------|
D|-0-0-0-2-3-----------------------|
A|-----------0-1-1-2-3-------------|
E|---------------------------------|

CHORUS
"Singing the song..."
G|-------------------------------|
D|-------------------------------|  X3
A|-5-5-4-3-3-5-0-1-1-1-3---------|
E|-------------------------------|

G|-------0-----------------------|
D|-------------------------------|
A|-5-4-3---3-0-1-1-2-3-----------|
E|-------------------------------|


"The song that brings the night to sleep..."
G|----------------------------------|
D|-0-0-0----------------------------|
A|--0----0--1-1-3-3-----------------| x2
E|-----------1---3------------------|

"...For illusion makes us sing..."
G|-------------------------------------|
D|-------------------------------------|
A|-5-4-3-2-1-3-5-4-3-3-5-0-1-1-2-3-----|
E|-------------------------------------|



Outro
G|------------------------0-2---0-------0-----------------------------|
D|---0----0---2-3---2-3-----------3---0-------------------------------|
A|-0----3-------------------------------------------------------------|
E|--------------------------------------------------------------------|


============================================================================
Добавлено: 04.08.2013
Другие материалы по этой песне:
  • Аккорды и текст

Страница создана 04.08.2013
http://primanota.ru/the-cat-empire/song-for-the-day-chords.htm
Привет, Гость.
Предлагаем пройти революционный курс по гитаре.
Подарок от PrimaNota.Ru, забирай!