PrimaNota.ru - самый крупный в мире бесплатный архив песенных текстов, аккордов, табулатур и нот


The Cat Empire - Know Your Name - таба, видео

Регистрация Запомнить меня
Войти через:  Facebook Google Twitter Vk Yandex Mail.ru

The Cat Empire - Know Your Name - таба, видео

Печатать
Просмотров: 158
The Cat Empire - Know Your Name


     Amaj      Emaj     F#-min      Dmaj    Hmin  Gmaj

E|--5----0----7----0----9-----2----5----2----2-----3-----|
B|--5----2----9----0----10----2----7----3----3-----3-----|
G|--6----2----9----1----11----2----7----2----4-----4-----|
D|--7-or-2----9-or-2----11-or-4----7-or-0----4-----5-----|
A|--7----0----7----2----9-----4----5---------2-----5-----|
E|--5---------7----0----9-----2----5---------2-----3-----|

I don't have the solo of the keybord (i think it's a keybord *g) which starts at 01:33.
It would be very nice if someone can help me with the keybord solo. ;)

Intro:


E|-----------------------------------|
B|-----------------------------------|
G|-----------------------------------|   4x
D|--7-7---7p6-5---------------5-6----|
A|--------------4--5-5---5h8---------|
E|-----------------------------------|


Chords after Intro:  Emaj - Dmaj

          Amaj
Know your name

            Emaj
And sing it loud

          F#-min   Dmaj
Know your na-a-a-a-ame                  <---- 2 times

           Amaj        Emaj
Though I'm saying this again

          Amaj
Know your name

    Dmaj    Emaj
And sing it loud


         Hmin
Though I listen when you talk to me

     Gmaj            Dmaj
Your eyes, they seem cold

      Hmin                           Gmaj
And I wish I might remind you of the time

                   Dmaj
When they held the sky

              Amaj          Gmaj     Emaj
On and on the song seems to find you alone

        Amaj
When it rains

            Emaj
I hear that sound

        F#-min   Dmaj
When it ra-a-a-a-ains

         Amaj
All that pain

        Emaj
Washing down

        Amaj
When it rains

  Dmaj      Emaj
I hear that sound


------------------------------------------------

Now the Keybord-Solo, which i don't have :P, starts.
^^

------------------------------------------------


         Hmin
Though I listen when you talk to me

     Gmaj            Dmaj
Your eyes, they seem cold

      Hmin                           Gmaj
And I wish I might remind you of the time

                   Dmaj     Amaj
When they held the sky

Amaj
You should have seen you in your prime

------------------------------------------------

Sax-Solo. I've put it into a Guitar Solo, because i don't have a sax. *g

------------------------------------------------

E|-----------------------------------|
B|------7---------------7-5-3-2------|
G|--7-7-----7-7-6---7-7---------4----|
D|-----------------------------------|
A|-----------------------------------|
E|-----------------------------------|

E|-----------------------------------|
B|------7----------------------------|
G|--7-7-----7-7-6---7-7-7------------|
D|-----------------------------------|
A|-----------------------------------|
E|-----------------------------------|


          Dmaj
Know your name

            Amaj
And sing it loud

          H-min   Gmaj
Know your na-a-a-a-ame

           Dmaj        Amaj
Though I'm saying this again

          Dmaj
Know your name

    H-min    Amaj
And sing it loud


----------------------------------------------

When Felix sings the last Refrain "know your name"
the sax is still playing.
Just play the notes underneath with the voice of felix.
You will understand it when you hear it. ^^

----------------------------------------------


E|-----------------------------------|
B|------7---------------7-5-3-2------|
G|--7-7-----7-7-6---7-7---------4----|
D|-----------------------------------|
A|-----------------------------------|
E|-----------------------------------|

E|-----------------------------------|
B|------7----------------------------|
G|--7-7-----7-7-6---7-7-7------------|
D|-------------------------9-9-7-----|
A|-----------------------------------|
E|-----------------------------------|


You can combine the sax-solo above with the guitarsolo underneath
The End of the sax-Solo is the beginning of the Guitar-End-Solo. ;)

Guitar-Solo at the End:


E|--------------------10-12/14~--14~p12h14p12-14p12------------------------------------------|
B|--------------10-12-------------------------------15-12-15p12-10---------------------------|
G|---------9-11-------------------------------------------------------------11---------------|
D|--7h9-12---------------------------------------------------------14p12-12----12-9-12-9-----|
A|-------------------------------------------------------------------------------------------|
E|-------------------------------------------------------------------------------------------|

E|-----------------------12/14-14-14-14-14-14--12h14-12--------------------------------------|
B|-----------------10-12--------------------------------15--10h12-15-15--15-10h12p10----10---|
G|------------9-11-------------------------------------------------------------------12------|
D|--9h12p9-12--------------------------------------------------------------------------------|
A|-------------------------------------------------------------------------------------------|
E|-------------------------------------------------------------------------------------------|

E|------------------------------------------17-16-15-14-----------------------|
B|------------------------------------------------------15-------15-15-15-15--|
G|--11-11-----11-11-----11-11-----11~/14-------------------14-16--------------|
D|--------12--------12--------12----------------------------------------------|
A|----------------------------------------------------------------------------|
E|----------------------------------------------------------------------------|

E|--17/19-19-19p17----17-14----------------------|
B|-----------------19-------15-10h12h15-15-15~---|
G|-----------------------------------------------|
D|-----------------------------------------------|
A|-----------------------------------------------|
E|-----------------------------------------------|


You have to focus on the speed and bend the notes from time to time ...


  ~    <--- vibrato

  p    <--- pull off

  h    <--- hammer on

  /    <--- slide
Добавлено: 03.05.2012
Другие материалы по этой песне:
  • Аккорды и текст

Страница создана 03.05.2012
http://primanota.ru/the-cat-empire/know-your-name-chords.htm
Привет, Гость.
Предлагаем пройти революционный курс по гитаре.
Подарок от PrimaNota.Ru, забирай!