PrimaNota.ru - самый крупный в мире бесплатный архив песенных текстов, аккордов, табулатур и нот


The Casual Fiasco - Head Up - таба, видео

Регистрация Запомнить меня
Войти через:  Facebook Google Twitter Vk Yandex Mail.ru

The Casual Fiasco - Head Up - таба, видео

Печатать
Просмотров: 72
-----------------------------------------------------------------------------
                             Head Up- The Casual Fiasco
-----------------------------------------------------------------------------
Tabbed by: drewsjam
E-mail:

Tuning:EBGDAe

This song is pretty dope, really hard to find now that Casual Fiasco split up.

Acoustic:

These chords are used for pretty much the entire song except for the solo part. Rhythm 
is easy listen to the song.
     G         Bm        C
e|---3---------2---------0---------0-----------------------------------------|
B|---3---------3---------1---------1-----------------------------------------|
G|---4---------4---------0---------0-----------------------------------------|
D|---5---------4---------2---------2-----------------------------------------|
A|---5---------2---------3---------3-----------------------------------------|
E|---5---------2-------------------------------------------------------------|

These are the chords played below the solo. Listen for the rhythm but basically its two 
measures of 4, divided right between the two Gs. Repeat until solo ends.

     G         Em        D        G                 C        D       G
e|---3---------7---------5--------3--------3--------3--------5-------3-------|
B|---3---------8---------7--------3--------3--------5--------7-------3-------|
G|---4---------9---------7--------4--------4--------5--------7-------4-------|
D|---5---------9---------7--------5--------5--------5--------7-------5-------|
A|---5---------7---------5--------5--------5--------5--------5-------5-------|
E|---3----------------------------3--------3-------------------------3-------|

Then theres this thing being played in the bridge. I think its just a G-C-D progression 
but from videos Ive seen he does something else. If anyone can help me out on that part 
that would be great.
       G        D      C
e|-----3--------2------0------------------------------------------------------|
B|-----3--------3------1------------------------------------------------------|
G|-----0--------2------0------------------------------------------------------|
D|-----0--------0------2------------------------------------------------------|
A|-----2---------------3------------------------------------------------------|
E|-----3----------------------------------------------------------------------|

Anyways over the bridge theres this solo B-D-E along with some other stuff but this is 
the predominant melody which I'm pretty sure the chords follow. Again, not so sure about 
the bridge chords

Electric:
e|---7-------10----3.---------------------------------------------------------|
B|----------------------------------------------------------------------------|
G|----------------------------------------------------------------------------|
D|----------------------------------------------------------------------------|
A|----------------------------------------------------------------------------|
E|----------------------------------------------------------------------------|



Thats pretty much it, except for the other solos which I won't try to do but someone is 
welcome to attempt.

************************************

| /   slide up
| \   slide down
| h   hammer-on
| p   pull-off
| ~   vibrato
| +   harmonic
| x   Mute note
| b   Bend
| pb  Pre-bend
| br  Bend release
| pbr Pre-bend release
| brb Bend release bend

************************************
Добавлено: 30.08.2013
Другие материалы по этой песне:
  • Аккорды и текст

Страница создана 30.08.2013
http://primanota.ru/the-casual-fiasco/head-up-chords.htm
Привет, Гость.
Предлагаем пройти революционный курс по гитаре.
Подарок от PrimaNota.Ru, забирай!