PrimaNota.ru - самый крупный в мире бесплатный архив песенных текстов, аккордов, табулатур и нот


The Casino Brawl - Xxxvi - таба, видео

Регистрация Запомнить меня
Войти через:  Facebook Google Twitter Vk Yandex Mail.ru

The Casino Brawl - Xxxvi - таба, видео

Печатать
Просмотров: 68
Tabbed by: Joshua Garcia (joshuag523@aol.com)

Tabs for the song: XXXVI by The Casino Brawl
Please rate and let me know if you have any corrections. Thank you.

Home page: https://www.facebook.com/pages/The-Casino-Brawl/14895831877

https://www.facebook.com/pages/The-Casino-Brawl/14895831877?id=14895831877&sk=info


Tuning: Drop A# (A# F A# D# G C)


Intro
Guitar 1/2:
C ||------------------------------------------------------|
G ||------------------------------------------------------|
D#||-------------------------------------------0-0-0---5--|
A#||------3--2-----------------------3--2----3-------2----|
F ||------5--3-----------------------5--3-----------------|
A#||--0-0--------0-6-5-0-3b-0---0--0----------------------|
      . .                          .

C ||-----------------------------------------|
G ||-----------------------------------------|
D#||-----------------------------------------|
A#||-------3--2------------------1--11--111--|
F ||-------5--3------------------1--11--111--|
A#||--0--0--------6-5-3-0-3b-0---1--11--111--|
      .  .


Guitar 2:
C ||-----|
G ||-----|
D#||-----|
A#||--3--|
F ||--3--|
A#||--3--|


Guitar 1:
C ||------------------------------|
G ||--8b10~--r8-------------------|
D#||-------------10-7-10b12r10-7--|
A#||------------------------------|
F ||------------------------------|
A#||------------------------------|



Verse
Guitar 1:
C ||-------------------------------------------------------|
G ||-------------------------------------------------------|
D#||--------------------------------------------0-0-0---5--|
A#||--0~---3--2------------------0~---3--2----3-------2----|
F ||--0~---5--3------------------0~---5--3-----------------|
A#||--0~-0--------0-6-5-0-3b-0---0~-0----------------------|
         .                          .

C ||---------------------------------------------------------------------|
G ||-----------------------------------------8b10~--r8-------------------|
D#||----------------------------------------------------10-7-10b12r10-7--|
A#||--0~---3--2------------------1--11--111------------------------------| x2
F ||--0~---5--3------------------1--11--111------------------------------|
A#||--0~-0--------6-5-3-0-3b-0---1--11--111------------------------------|
         .


Guitar 2:
C ||-------------------------------------------------------|
G ||-------6--5--------------------------------------------|
D#||-------7--5---------------------------------0-0-0---5--|
A#||--0~-------------------------0~---3--2----3-------2----|
F ||--0~-------------------------0~---5--3-----------------|
A#||--0~-0--------0-6-5-0-3b-0---0~-0----------------------|
         .                          .

C ||----------------------------------------------------|
G ||-------6--5-----------------------------------------|
D#||-------7--5-----------------------------------------|
A#||--0~-------------------------1--11--111-3--33--333--| x2
F ||--0~-------------------------1--11--111-3--33--333--|
A#||--0~-0--------6-5-3-0-3b-0---1--11--111-3--33--333--|
         .


Pre-Chorus
Guitar 1:
C ||-------------------------------------------------|
G ||-------------------------------------------------|
D#||-----9-10-12-9~-----12-10-9----------------------|
A#||--12------------------------10----10/12~----10~--| x2
F ||-------------------------------12----------------|
A#||-------------------------------------------------|


Guitar 2:
C ||-------------------------------------------------|
G ||-------------------------------------------------|
D#||-------------------------------------------------|
A#||--10~-----------------------------0~--------10~--| x2
F ||--8-~-----------------------------0~--------10~--|
A#||--8-~-----------------------------0~--------10~--|



Chorus
Guitar 1:
C ||------------------------------------------|-------------------------|
G ||------------------------------------------|-------------------------|
D#||-----9-10-12-9~-----12-10-9---------------|--10-9-------------------|
A#||--12------------------------10----10/12~--|-------10----------------|
F ||-------------------------------12---------|----------12-10-8-10-12--|
A#||------------------------------------------|-------------------------|


Guitar 1:
C ||------------------------------------------------|-------------------------|
G ||------------------------------------------------|-------------------------|
D#||-----9-10-12-9~-----12-10-9---------------(9~)--|--10-9-------------------|
A#||--12------------------------10----10/12~--------|-------10----------------|
F ||-------------------------------12---------------|----------12-10-8-10-12--|
A#||------------------------------------------------|-------------------------|



Guitar 2:
C ||--------------------------------|
G ||--------------------------------|
D#||--------------------------------|
A#||--10---10---10---10--10-10--0~--| x2
F ||--8----8----8----8---8--8---0~--|
A#||--8----8----8----8---8--8---0~--|



Mid-Solo
Guitar 1:
C ||--13-10----12-10----13-10----12-10----13-10-------------------------------|
G ||--------10-------10-------10-------10-------10~---------------------------|
D#||--------------------------------------------------12-/-14----9-/-10-------|
A#||---------------------------------------------------------------------10~--|
F ||--------------------------------------------------------------------------|
A#||--------------------------------------------------------------------------|

                                                      (trem)
C ||--13-12-10-13-12-10-13-12-10-13-12-10-13-12-10~---13131313-15151515-17171717-20202020-20b22~--|
G ||----------------------------------------------------------------------------------------------|
D#||----------------------------------------------------------------------------------------------|
A#||----------------------------------------------------------------------------------------------|
F ||----------------------------------------------------------------------------------------------|
A#||----------------------------------------------------------------------------------------------|


Guitar 2:
C ||-------------------------------------------------------|
G ||-------------------------------------------------------|
D#||-------------------------------------------------------|
A#||--10---10---10---10--10-10--0~---0~---10~--10~--10-10--| x2
F ||--8----8----8----8---8--8---0~---0~---10~--10~--10-10--|
A#||--8----8----8----8---8--8---0~---0~---10~--10~--10-10--|



Pre-Verse
Guitar 1/2:
C ||-----------------------------------------|-----------------------------------------------|
G ||-----------------------------------------|-----------------------------------------------|
D#||-----------------------------------------|-----------------------------------------------|
A#||--10---10---10~-------------0~------10~--|--8----8----8-~-------------0~------10---------|
F ||--8----8----8-~-------------0~------10~--|--8----8----8-~-------------0~------10---------|
A#||--8----8----8-~-------------0~------10~--|--8----8----8-~-------------0~------10--1//\\--|



Verse
Guitar 1:
C ||-------------------------------------------------------|
G ||-------------------------------------------------------|
D#||--------------------------------------------0-0-0---5--|
A#||--0~---3--2------------------0~---3--2----3-------2----|
F ||--0~---5--3------------------0~---5--3-----------------|
A#||--0~-0--------0-6-5-0-3b-0---0~-0----------------------|
         .                          .

C ||---------------------------------------------------------------------|
G ||-----------------------------------------8b10~--r8-------------------|
D#||----------------------------------------------------10-7-10b12r10-7--|
A#||--0~---3--2------------------1--11--111------------------------------|
F ||--0~---5--3------------------1--11--111------------------------------|
A#||--0~-0--------6-5-3-0-3b-0---1--11--111------------------------------|
         .


Guitar 2:
C ||-------------------------------------------------------|
G ||-------6--5--------------------------------------------|
D#||-------7--5---------------------------------0-0-0---5--|
A#||--0~-------------------------0~---3--2----3-------2----|
F ||--0~-------------------------0~---5--3-----------------|
A#||--0~-0--------0-6-5-0-3b-0---0~-0----------------------|
         .                          .

C ||----------------------------------------------------|
G ||-------6--5-----------------------------------------|
D#||-------7--5-----------------------------------------|
A#||--0~-------------------------1--11--111-3--33--333--|
F ||--0~-------------------------1--11--111-3--33--333--|
A#||--0~-0--------6-5-3-0-3b-0---1--11--111-3--33--333--|
         .




Guitar 1:
C ||-------------------------------------------------------|
G ||-------------------------------------------------------|
D#||--------------------------------------------0-0-0---5--|
A#||--0~---3--2------------------0~---3--2----3-------2----|
F ||--0~---5--3------------------0~---5--3-----------------|
A#||--0~-0--------0-6-5-0-3b-0---0~-0----------------------|
         .                          .

C ||-------------------------------------------|
G ||-------------------------------------------|
D#||-------------------------------------------|
A#||--0~---3--2------------------1--11--111-3--|
F ||--0~---5--3------------------1--11--111-3--|
A#||--0~-0--------6-5-3-0-3b-0---1--11--111-3--|
         .


Guitar 2:
C ||-------------------------------------------------------|
G ||-------6--5--------------------------------------------|
D#||-------7--5---------------------------------0-0-0---5--|
A#||--0~-------------------------0~---3--2----3-------2----|
F ||--0~-------------------------0~---5--3-----------------|
A#||--0~-0--------0-6-5-0-3b-0---0~-0----------------------|
         .                          .

C ||-------------------------------------------|
G ||-------6--5--------------------------------|
D#||-------7--5--------------------------------|
A#||--0~-------------------------1--11--111-3--|
F ||--0~-------------------------1--11--111-3--|
A#||--0~-0--------6-5-3-0-3b-0---1--11--111-3--|
         .


Breakdown
Guitar 1/2:
C ||-------------------------------------------------------|
G ||-------------------------------------------------------|
D#||--------------------------------------------0-0-0---5--|
A#||--0~---0--0--0--------------0~---0--0--0--3-------2----|
F ||--0~---0--0--0--------------0~---0--0--0---------------|
A#||--0~---0--0--0--6-5-0-3b-0--0~---0--0--0---------------|
           .  .  .                   .  .  .


C ||------------------------------------------------|
G ||------------------------------------------------|
D#||------------------------------------------------|
A#||--0~---0--0--0--------------1~---1--1--1--3--3--|
F ||--0~---0--0--0--------------1~---1--1--1--3--3--|
A#||--0~---0--0--0--6-5-0-3b-0--1~---1--1--1--3--3--|
           .  .  .


Guitar 1:
C ||--------|
G ||--------|
D#||--'4b~--|
A#||--------|
F ||--------|
A#||--------|


Guitar 2:
C ||--------|
G ||--------|
D#||--------|
A#||--'4b~--|
F ||--------|
A#||--------|


Guitar 1/2:
C ||-------------------------------------------------------|
G ||-------------------------------------------------------|
D#||--------------------------------------------0-0-0---5--|
A#||--0~---0--0--0--------------0~---0--0--0--3-------2----|
F ||--0~---0--0--0--------------0~---0--0--0---------------|
A#||--0~---0--0--0--6-5-0-3b-0--0~---0--0--0---------------|
           .  .  .                   .  .  .


C ||---------------------------------------------------|
G ||---------------------------------------------------|
D#||---------------------------------------------------|
A#||--0~---0--0--0--------------1~---1--1--1--3--3--3--|
F ||--0~---0--0--0--------------1~---1--1--1--3--3--3--|
A#||--0~---0--0--0--6-5-0-3b-0--1~---1--1--1--3--3--3--|



Bridge
Guitar 1:
C ||-----------------------------------------------------|
G ||-----------------------------------------------------|
D#||--/7~----------------------/10~----------------------|
A#||--/x-----------------------/x------------------------|
F ||--/5~--0-0000--0000--0000--/8-~--0-0000--0000--0000--|
A#||-------0-0000--0000--0000--------0-0000--0000--0000--|
           . ....  ....  ....        . ....  ....  ....

C ||------------------------------------------------------|
G ||------------------------------------------------------|
D#||--/12~----------------------/17~----------------------|
A#||--/x------------------------/x------------------------| x2
F ||--/10~--0-0000--0000--0000--/15~--0-0000--0000--0000--|
A#||--------0-0000--0000--0000--------0-0000--0000--0000--|
            . ....  ....  ....        . ....  ....  ....


C ||------|
G ||------|
D#||------|
A#||--8~--|
F ||--8~--|
A#||--8~--|


Guitar 2:
C ||---------------------------------------------------|
G ||---------------------------------------------------|
D#||--7--7-7-7-7-7-7-7-7/10--10-10-10-10-10-10-10-10/--|
A#||--x--x-x-x-x-x-x-x-x/x---x--x--x--x--x--x--x--x-/--|
F ||--5--5-5-5-5-5-5-5-5/8---8--8--8--8--8--8--8--8-/--|
A#||---------------------------------------------------|


C ||-----------------------------------------------------------|
G ||-----------------------------------------------------------|
D#||--12--12-12-12-12-12-12-12-12/17--17-17b18-18-18-18r17-17--|
A#||--x---x--x--x--x--x--x--x--x-/x---x--x--x--x--x--x--x--x---| x2
F ||--10--10-10-10-10-10-10-10-10/15--15-15-15-15-15-15-15-15--|
A#||-----------------------------------------------------------|



Pre-Chorus
Guitar 1:
C ||-------------------------------------------------|------------------------------------------|
G ||-------------------------------------------------|------------------------------------------|
D#||-----9-10-12-9~-----12-10-9----------------------|-----9-10-12-9~-----12-10-9---------------|
A#||--12------------------------10----10/12~----10~--|--12------------------------10----10/12~--|
F ||-------------------------------12----------------|-------------------------------12---------|
A#||-------------------------------------------------|------------------------------------------|


Guitar 2:
C ||-------------------------------------------------|------------------------------------------|
G ||-------------------------------------------------|------------------------------------------|
D#||-------------------------------------------------|------------------------------------------|
A#||--8~------------------------------0~--------10~--|--8~--------------------------------------|
F ||--8~------------------------------0~--------10~--|--8~--------------------------------------|
A#||--8~------------------------------0~--------10~--|--8~--------------------------------------|



Chorus
Guitar 1:
C ||-------------------------------------------------|-------------------------|
G ||-------------------------------------------------|-------------------------|
D#||-----9-10-12-9~-----12-10-9----------------------|--10-9-------------------|
A#||--12------------------------10----10/12~--(10~)--|-------10----------------|
F ||-------------------------------12----------------|----------12-10-8-10-12--|
A#||-------------------------------------------------|-------------------------|


Guitar 1:
C ||------------------------------------------------|-------------------------|
G ||------------------------------------------------|-------------------------|
D#||-----9-10-12-9~-----12-10-9---------------(9~)--|--10-9-------------------|
A#||--12------------------------10----10/12~--------|-------10----------------|
F ||-------------------------------12---------------|----------12-10-8-10-12--|
A#||------------------------------------------------|-------------------------|



Guitar 2:
C ||--------------------------------|
G ||--------------------------------|
D#||--------------------------------|
A#||--10---10---10---10--10-10--0~--| x2
F ||--8----8----8----8---8--8---0~--|
A#||--8----8----8----8---8--8---0~--|



Solo
Guitar 1:
C ||--/13--12-------------------------------------------------------------------------------------|
G ||----------13/15\13~---15-11/13~---------------------------------------------------------------|
D#||---------------------------------12~/14--10--9h10p9~--------------------12-14---14b15r14-12~--|
A#||-----------------------------------------------------10--12-/15--14--15-----------------------|
F ||----------------------------------------------------------------------------------------------|
A#||----------------------------------------------------------------------------------------------|


C ||-------------------------------------------------|
G ||---------17--17b18~--17-17-18-20--20b22r20--17~--|
D#||--12-14------------------------------------------|
A#||-------------------------------------------------|
F ||-------------------------------------------------|
A#||-------------------------------------------------|


C ||---------------------------------------------------------------|
G ||---------------------------------------------------------------|
D#||--15-14h15p14-12-----------------------------------------------|
A#||-----------------15-14h15p14-12--------------------------------|
F ||--------------------------------15-13h15p13-12-----------------|
A#||-----------------------------------------------15-14h15p14-12--|


C ||--------------------------------------------------|
G ||----------------------------------------13-15-----|
D#||----------------------------------12-14-------14--|
A#||-------------------------12-14-15-----------------|
F ||-------------10-11-14-15--------------------------|
A#||--0-12-14-15--------------------------------------|


Guitar 2:
C ||-------------------------------------------------------|
G ||-------------------------------------------------------|
D#||-------------------------------------------------------|
A#||--10---10---10---10--10-10--0~---0~---10~--10~--10-10--| x4
F ||--8----8----8----8---8--8---0~---0~---10~--10~--10-10--|
A#||--8----8----8----8---8--8---0~---0~---10~--10~--10-10--|



Outro
Guitar 1:
C ||--------------------------|----------------------------|
G ||---/18--17--13~------15~--|--/18---17---13~------------|
D#||--------------------------|-----------------------14~--|
A#||--------------------------|----------------------------|
F ||--------------------------|----------------------------|
A#||--------------------------|----------------------------|


C ||-------------------------------------|--------------------------------------------------------|
G ||--/18------17------13~----------15~--|--/18-------17-------13~--------------------------------|
D#||-------------------------------------|-------------------------------14~-------12~------------|
A#||-------------------------------------|---------------------------------------------------15~--|
F ||-------------------------------------|--------------------------------------------------------|
A#||-------------------------------------|--------------------------------------------------------|


Guitar 2:
C ||-----------------------------|---------------------------------|
G ||-----------------------------|---------------------------------|
D#||-----------------------------|---------------------------------|
A#||--8--8--8~------0~------10~--|--8---8---8~-------0~-------10~--|
F ||--8--8--8~------0~------10~--|--8---8---8~-------0~-------10~--|
A#||--8--8--8~------0~------10~--|--8---8---8~-------0~-------10~--|


C ||---------------------------------------------|-------------------------------------------------|
G ||---------------------------------------------|-------------------------------------------------|
D#||---------------------------------------------|-------------------------------------------------|
A#||--8------8------8~----------0~----------10~--|--8-------8-------8~-----------0~-----------10~--|
F ||--8------8------8~----------0~----------10~--|--8-------8-------8~-----------0~-----------10~--|
A#||--8------8------8~----------0~----------10~--|--8-------8-------8~-----------0~-----------10~--|


C ||------|
G ||------|
D#||------|
A#||--8~--|
F ||--8~--|
A#||--8~--|




Tablature Legend
----------------
 h   - hammer-on
 p   - pull-off
 b   - bend
 r   - release bend
 *   - pinch harmonic
 '   - natural harmonic
 x   - mute note
 .   - palm mute
 /   - slide down
 \   - slide up
Добавлено: 05.11.2013
Другие материалы по этой песне:
  • Аккорды и текст

Страница создана 05.11.2013
http://primanota.ru/the-casino-brawl/xxxvi-chords.htm
Привет, Гость.
Предлагаем пройти революционный курс по гитаре.
Подарок от PrimaNota.Ru, забирай!