PrimaNota.ru - самый крупный в мире бесплатный архив песенных текстов, аккордов, табулатур и нот


The Capitols - Cool Jerk - текст песни, бас-таба, видео

Регистрация Запомнить меня
Войти через:  Facebook Google Twitter Vk Yandex Mail.ru

The Capitols - Cool Jerk - текст песни, бас-таба, видео

Печатать
Просмотров: 66
Авторы музыки: Donald Storball
Авторы текста: Donald Storball
-------------------------------------------------------------------------------
                             Cool Jerk - The Capitols
-------------------------------------------------------------------------------
Tabbed by: CorporalCrunch

Tuning: Standard

Intro:
G|-----------------------------------|
D|-----------------------------------|
A|6--6---------4-6-6--6---------4-6-6|
E|----3-4-6--6---------3-4-6--6------|

Part 1: "Cool Jerk..."
G|----------------------------------------------------------------------|
D|----------------------------------------------------------------------|
A|6---------4-6-6--6----------4-6-6--6---------4-6-6--6----------4-6-6--|
E|-3-4-6--6---------3-4-66--6---------3-4-6--6---------3-4-66--6--------|

G|----------------------------------------------------------------------|
D|----------------------------------------------------------------------|
A|6---------4-6-6--6----------4-6-6--6---------4-6-6--6----------4-6-6--|
E|-3-4-6--6---------3-4-66--6---------3-4-6--6---------3-4-66--6--------|

G|-----------------------------------------------------------------|
D|---------------------------------6---------4-6-6--6----------4-6-|
A|6---------4-6-6--6----------4-6---3-4-6--6---------3-4-66--6-----|
E|-3-4-6--6---------3-4-66--6--------------------------------------|

G|-----------------------------------------------------------------|
D|-----------------------------------------------------------------|
A|6---------4-6-6--6----------4-6----------------------------------|
E|-3-4-6--6---------3-4-66--6--------------------------------------|

Bridge: "When you see me walking..."
G|-----------------------------------------------------------------|
D|------------------------------6---------4-6--8-------------------|
A|-----------3-3-----------3-3---3-4-6--6-------5-6-8--------------|
E|3-33--33--3----3-33--33-3----------------------------------6-66-6|

Part 2: "Look at them guys looking at me..."
G|----------------------------------------------------------------------|
D|----------------------------------------------------------------------|
A|6---------4-6-6--6----------4-6-6--6---------4-6-6--6----------4-6-6--|
E|-3-4-6--6---------3-4-66--6---------3-4-6--6---------3-4-66--6--------|

G|----------------------------------------------------------------------|
D|----------------------------------------------------------------------|
A|6---------4-6-6--6----------4-6-6--6---------4-6-6--6----------4-6-6--|
E|-3-4-6--6---------3-4-66--6---------3-4-6--6---------3-4-66--6--------|

G|-----------------------------------------------------------------|
D|---------------------------------6---------4-6-6--6----------4-6-|
A|6---------4-6-6--6----------4-6---3-4-6--6---------3-4-66--6-----|
E|-3-4-6--6---------3-4-66--6--------------------------------------|
* "Now give me a little bit of bass.." *
G|----------------------------------------------------------------------|
D|----------------------------------------------------------------------|
A|6---------4-6-6--6----------4-6-6--6---------4-6-6--6----------4-6-6--|
E|-3-4-6--6---------3-4-66--6---------3-4-6--6---------3-4-66--6--------|

G|----------------|
D|----------------|
A|6---------4-6-6-|
E|-3-4-6--6-------|

Part 3: "Can you do it, can you do it..."
G|----------------------------|
D|----------------------------|
A|6-66-6--------6-66-6--------|
E|-------4-44-4--------4-44-4-|

Part 4: "Cool Jerk..."
G|-------------------------------------|
D|-------------------------------------|
A|6---------4-6-6--6----------4-6-6--6-|
E|-3-4-6--6---------3-4-66--6----------|

Bridge: "When you see me walking..."
G|-----------------------------------------------------------------|
D|------------------------------6---------4-6--8-------------------|
A|-----------3-3-----------3-3---3-4-6--6-------5-6-8--------------|
E|3-33--33--3----3-33--33-3----------------------------------6-66-6|


Part 5 (Final): "Cool Jerk..."
G|----------------------------------------------------------------------|
D|----------------------------------------------------------------------|
A|6---------4-6-6--6----------4-6-6--6---------4-6-6--6----------4-6-6--|
E|-3-4-6--6---------3-4-66--6---------3-4-6--6---------3-4-66--6--------|

G|------------------------------------------------------------------------|
D|------------------------------------------------------------------------|
A|6---------4-6-6--6-66-6--------6-66-6-----------------------------------|
E|-3-4-6--6---------------4-44-4--------4-44--4---------------------------|


===============================================================================
Добавлено: 21.12.2015
Другие материалы по этой песне:
  • Аккорды и текст

Страница создана 05.05.2012
http://primanota.ru/the-capitols/cool-jerk-chords.htm
Привет, Гость.
Предлагаем пройти революционный курс по гитаре.
Подарок от PrimaNota.Ru, забирай!