PrimaNota.ru - самый крупный в мире бесплатный архив песенных текстов, аккордов, табулатур и нот


The Candy Spooky Theater - Devilish Kidnapper - таба, видео

Регистрация Запомнить меня
Войти через:  Facebook Google Twitter Vk Yandex Mail.ru

The Candy Spooky Theater - Devilish Kidnapper - таба, видео

Печатать
Просмотров: 89
                             ~The Candy Spooky Theater~
                                †Devilish Kidnapper†
 
http://www.thecandyspookytheater.com/

Artist: The Candy Spooky Theater
Song: Devilish Kidnapper
Album: Pumpkins Scream in the Dead of Night Parade
Members:-Jack Spooky(Vocal)
        -Peggy Giggles(Bass)
        -Kal Bon Jr(Guitar)Ex.Guitars:Zull(2007); Kiddy Skeleton(2008)

One of the greatest J-gothic bands ever, in my opinion. Was formed in 2003 by Jack
(voice of comic terror, malicious vampire doll) and Peggy
(shameless electric bass, sexual witch princess doll). This same year they joined 
Zull(guitar with sound of fascination, doll anatomist crazy).

Enjoy this masterpiece:


Intro at 0:18
               x4      1st      2nd      3th      4th
e|---------------|--------|--------|--------|--------|--\
B|---------------|--------|--------|--------|--------|  |
G|---------------|--------|--------|--------|--------|  |-This x2
D|--3----6-5---3-|--------|--------|--------|--------|  |
A|--0--3-0-0-3-0-|-3-6--4-|-3-4--6-|-3-6--4-|-3-4--6-|  |
E|-----0-----0---|-0-0--0-|-0-0--0-|-0-0--0-|-0-0--0-|--/


Verse at 0:34

e|--------------------------------------|--\
B|--------------------------------------|  |
G|--------------------------------------|  |    (That was what I counted).
D|--------------------------------------|  |-This x6 (I made all by ear).
A|--3-3-3-3--3-3-3-3--3-3-3-3--3-3-3-3--|  |
E|--1-1-1-1--1-1-1-1--1-1-1-1--1-1-1-1--|--/


Chorus at 0:58
               x4      1st      2nd      3th      4th
e|---------------|--------|--------|--------|--------|--\
B|---------------|--------|--------|--------|--------|  |
G|---------------|--------|--------|--------|--------|  |-This x2
D|--3----6-5---3-|--------|--------|--------|--------|  |
A|-----3-----3---|-3-6--4-|-3-4--6-|-3-6--4-|-3-4--6-|  |
E|---------------|--------|--------|--------|--------|--/

                    ...cu...cu...cu...cu... xDD
Intro at 1:36
               x4      1st      2nd      3th      4th
e|---------------|--------|--------|--------|--------|--\
B|---------------|--------|--------|--------|--------|  |
G|---------------|--------|--------|--------|--------|  |-This x2
D|--3----6-5---3-|--------|--------|--------|--------|  |
A|--0--3-0-0-3-0-|-3-6--4-|-3-4--6-|-3-6--4-|-3-4--6-|  |
E|-----0-----0---|-0-0--0-|-0-0--0-|-0-0--0-|-0-0--0-|--/


Verse at 1:52

e|--------------------------------------|--\
B|--------------------------------------|  |
G|--------------------------------------|  |(Again:That was what I counted).
D|--------------------------------------|  |-This x6 (All by ear).
A|--3-3-3-3--3-3-3-3--3-3-3-3--3-3-3-3--|  |
E|--1-1-1-1--1-1-1-1--1-1-1-1--1-1-1-1--|--/


Chorus at 2:16
               x4      1st      2nd      3th     4th
e|---------------|--------|--------|--------|-------|--\
B|---------------|--------|--------|--------|-------|  |
G|---------------|--------|--------|--------|-------|  |-This x4
D|--3----6-5---3-|--------|--------|--------|-------|  |
A|-----3-----3---|-3-6--4-|-3-4--6-|-3-6--4-|-3-4-6-|  |
E|---------------|--------|--------|--------|-------|--/

For more info about the band: http://www.thecandyspookytheater.com/
That's all, go crazy xD. I hope that the Visual's and gothic's users use this tab.
I think you gonna love it like me. Weird, creepy, spooky, japanese and goth: The 
Perfect Beautiful Combination.<3

http://www.thecandyspookytheater.com/

~Mōses VIII~
Добавлено: 14.04.2012
Вам также может быть интересно:
Другие материалы по этой песне:
  • Аккорды и текст

Страница создана 14.04.2012
http://primanota.ru/the-candy-spooky-theater/devilish-kidnapper-chords.htm
Привет, Гость.
Предлагаем пройти революционный курс по гитаре.
Подарок от PrimaNota.Ru, забирай!