PrimaNota.ru - самый крупный в мире бесплатный архив песенных текстов, аккордов, табулатур и нот


The Cabs - There Is No Tomorrow For Us - таба, видео

Регистрация Запомнить меня
Войти через:  Facebook Google Twitter Vk Yandex Mail.ru

The Cabs - There Is No Tomorrow For Us - таба, видео

Печатать
Просмотров: 87
---------------------------------------------------------------------------------------------------
                 There Is No Tomorrow For Us(Bokutachiniasuhanai) - the cabs
----------------------------------------------------------------------------------------------------
Tabbed by:Moniitor
E-mail:r3tardojosh@gmail.com

Tuning: Standard Capo 1

Third song from their first EP, one of their easier songs i would say, but still a challenge.
Play with overdriven sound through a single coil, think it's the bridge pickup but not 
to sure,
whatever sounds best to you.

Order at the bottom
------------------------------------------------------------------------------------------------------

Intro/Verse 1:

Part A
e|------------------------------------0------------------|
B|----------------0h2p0----------------------------7-----|
G|--------1h2p1-----------1h2-----6-----6--------9---9---|
D|---0------------------------------4-----4/7--7---------|
A|-2----2-------2-------2-----2/5------------------------|
E|-------------------------------------------------------|

Part B
e|--------5-----------5----------------------------0-----|
B|----5-----4-----5-----4----------0-----------------0---|
G|------4-----------4----------2-----2-----1h2p1---------|
D|-------------------------------2---------------2-------|
A|-4-----------4-----------------------------------------|
E|--------------------------2-----------0----------------|

Part C
e|--------5-----------5----------------------------0---0-0---0~-|
B|----5-----4-----5-----4----------0-------------------0-0---0~-|
G|------4-----------4----------2-----2-----1h2p1-------2-2---2~-|
D|-------------------------------2---------------2-----0-0---0~-|
A|-4-----------4---------------------------------------2-2---2~-|
E|--------------------------2-----------0-----------------------|
                                     
Pre-chorus 1:

e|-------------------------------------------------------0-----|
B|-------0--------------2----------------------------------0---|
G|-2--------2-----2--------2-------1-----1h2p1--------2--------|
D|---0--------0-----0--------0-------0------------2/4----------|
A|-----0--------0-----4--------4-------2-------2---------------|
E|-------------------------------------------------------------|

Chorus 1:

Part A
e|-0-0--0-0-0--0-0--0-0-0--0-0-0-0---0--0---0--0--0---12-12--12-12-12---12-12-12-12---|
B|-7-7--7-7-7--7-7--7-7-7--7-7-7-7---10-10--10-10-10--10-10--10-10-10---10-10-10-10---|
G|-6-6--6-6-6--6-6--6-6-6--6-6-6-6---9--9---9--9--9---9--9---9--9--9----9--9--9--9----|
D|-0-0--0-0-0--0-0--0-0-0--0-0-0-0---0--0---0--0--0---0--0---0--0--0----0--0--0--0----|
A|-0-0--0-0-0--0-0--0-0-0--0-0-0-0---0--0---0--0--0---0--0---0--0--0----0--0--0--0----|
E|------------------------------------------------------------------------------------|

Part B
e|---------------9-9--10-x-9-9-9---|
B|-10--12-12--x--0-0--0--x-0-0-0---|
G|-9---11-11--x--9-9--9--x-9-9-9---|
D|-----9--9---x--7-7--7--x-7-7-7---|
A|-9---0--0---x--0-0--0----0-0-0---|
E|---------------------------------|

Part C
e|-----9------9---------9------12---|
B|-12-----12----12--12-----12-------|
G|----------------------------------|
D|----------------------------------|
A|----------------------------------|
E|----------------------------------|

Verse 2:

Part A
e|----------0~------------0------------------|
B|----------0~-------------------------7-----|
G|-------2--2~--------6-----6------9-----9---|
D|---0------0~----------4------4/7---7-------|
A|-2---2----2~----2/5------------------------|
E|-------------------------------------------|

Part B
e|----------0~-------------------------------|
B|----------0~-----------9--------9-10-9-----|
G|-------2--2~-------9-----9-------------9---|
D|---0------0~---------7------/11------------|
A|-4---4----4~----/9-------------------------|
E|-------------------------------------------|
on the second time don't play the last note

Bridge: (reverb, slightly more clean if you want)

Part A
e|------------------------------------------------------------------------------|
B|----------14-----------------14-----------------17-----------------17---------|
G|----11-------11--------11-------11--------14-------14--------14-------14------|
D|-11----11-------11--11----11-------11--14----14-------14--14----14-------14---|
A|------------------------------------------------------------------------------|
E|------------------------------------------------------------------------------|

Part B
e|-------5------------5--------------------------------------|
B|------------------------------10---12-10------9---10-9-----|
G|---2-----2------2-----2----------9-------9------9------9---|
D|-----0-----0------0-----0----------------------------------|
A|-4------------4-------------9---------------7--------------|
E|-----------------------------------------------------------|

Part C
e|------7-------7------9------9--------12--------12--------12--------12--0---|
B|-10------10------7------7------10--------10--------10--------10--------0---|
G|----9-------9------9------9-------13--------13--------13--------13-----0---|
D|-----------------------------------------------------------------------0---|
A|---------------------------------------------------------------------------|
E|---------------------------------------------------------------------------|
                                         open notes are only played when ^
                                         transitioning into the next chords

Pre-chorus 2:

Part A
e|-0-0-0-0-0--0-0-0-0-0---12-12-12-12-12--12-12-12-12-12---|
B|-0-0-0-0-0--0-0-0-0-0---9--9--9--9--9---9--9--9--9--9----|
G|-2-2-2-2-2--2-2-2-2-2---11-11-11-11-11--11-11-11-11-11---|
D|-2-2-2-2-2--2-2-2-2-2---0--0--0--0--0---0--0--0--0--0----|
A|-0-0-0-0-0--0-0-0-0-0---0--0--0--0--0---0--0--0--0--0----|
E|-2-2-2-2-2--2-2-2-2-2------------------------------------|

Part B
e|-12-12-12-12-12--12-12-12-12-12---16-16-16-16-16--17-17-17-17-17---|
B|-10-10-10-10-10--10-10-10-10-10---14-14-14-14-14--14-14-14-14-14---|
G|-13-13-13-13-13--13-13-13-13-13---16-16-16-16-16--16-16-16-16-16---|
D|-0--0--0--0--0---0--0--0--0--0----0--0--0--0--0---0--0--0--0--0----|
A|-0--0--0--0--0---0--0--0--0--0----0--0--0--0--0---0--0--0--0--0----|
E|-------------------------------------------------------------------|

Part C
e|-0-0---|
B|-0-0---|
G|-2-2---|
D|-2-2---|
A|-0-0---|
E|-2-2---|

Chorus 2:

Part A
e|-0-0--0-0-0--0-0--0-0-0--0-0-0-0---0--0---0--0--0---12-12--12-12-12---12-12-12-12---|
B|-7-7--7-7-7--7-7--7-7-7--7-7-7-7---10-10--10-10-10--10-10--10-10-10---10-10-10-10---|
G|-6-6--6-6-6--6-6--6-6-6--6-6-6-6---9--9---9--9--9---9--9---9--9--9----9--9--9--9----|
D|-0-0--0-0-0--0-0--0-0-0--0-0-0-0---0--0---0--0--0---0--0---0--0--0----0--0--0--0----|
A|-0-0--0-0-0--0-0--0-0-0--0-0-0-0---0--0---0--0--0---0--0---0--0--0----0--0--0--0----|
E|------------------------------------------------------------------------------------|

Part B
e|---------------9-9--10-x-9-9-9---|
B|-10--12-12--x--0-0--0--x-0-0-0---|
G|-9---11-11--x--9-9--9--x-9-9-9---|
D|-----9--9---x--7-7--7--x-7-7-7---|
A|-9---0--0---x--0-0--0----0-0-0---|
E|---------------------------------|

Part C
e|---------------9-9--10-10--9999---|
B|-10-10--12-12--0-0--0--0---0000---|
G|-9--9---11-11--9-9--9--9---9999---|
D|--------9--9---7-7--7--7---7777---|
A|-9--9---0--0---0-0--0--0---0000---|
E|----------------------------------|
Every second time replace the last set
of chords with 7th fret harmonics on all the strings

Outro:

Part A
e|-0-0-0-0-0--0-0-0-0-0---12-12-12-12-12--12-12-12-12-12---|
B|-0-0-0-0-0--0-0-0-0-0---9--9--9--9--9---9--9--9--9--9----|
G|-2-2-2-2-2--2-2-2-2-2---11-11-11-11-11--11-11-11-11-11---|
D|-2-2-2-2-2--2-2-2-2-2---0--0--0--0--0---0--0--0--0--0----|
A|-0-0-0-0-0--0-0-0-0-0---0--0--0--0--0---0--0--0--0--0----|
E|-2-2-2-2-2--2-2-2-2-2------------------------------------|

Part B
e|-12-12-12-12-12--12-12-12-12-12---16-16-16-16-16--17-17-17-17-17---|
B|-10-10-10-10-10--10-10-10-10-10---14-14-14-14-14--14-14-14-14-14---|
G|-13-13-13-13-13--13-13-13-13-13---16-16-16-16-16--16-16-16-16-16---|
D|-0--0--0--0--0---0--0--0--0--0----0--0--0--0--0---0--0--0--0--0----|
A|-0--0--0--0--0---0--0--0--0--0----0--0--0--0--0---0--0--0--0--0----|
E|-------------------------------------------------------------------|

End on this chord
e|-0-|
B|-0-|
G|-2-|
D|-2-|
A|-0-|
E|-2-|

------------------------------------------------------------------------------------
Order:


Intro/verse:
A x1
B x1
A x1
C x1
A x1
B x1
A x1
B x1

Pre-chorus 1 x 4

Chorus 1:
A x1
B x2
A x1
B x2
C x1

Verse 2:
A x1
B x1
A x1
B x1

Bridge:
A x1
B x1
A x1
B x1
C x2

Pre-chorus 2:
A x1
B x1
A x1
B x1
C x1

Chorus 2:
A x1
B x2
A x1
C x2
A x1
C x2

Outro:
A x1
B x1
A x1
B x1


************************************

| /   slide up
| \   slide down
| h   hammer-on
| p   pull-off
| ~   vibrato
| +   harmonic
| x   Mute note
| b   Bend
| pb  Pre-bend
| br  Bend release
| pbr Pre-bend release
| brb Bend release bend

************************************
Добавлено: 27.12.2015
Другие материалы по этой песне:
  • Аккорды и текст

Страница создана 27.12.2015
http://primanota.ru/the-cabs/there-is-no-tomorrow-for-us-chords.htm
Привет, Гость.
Предлагаем пройти революционный курс по гитаре.
Подарок от PrimaNota.Ru, забирай!