PrimaNota.ru - самый крупный в мире бесплатный архив песенных текстов, аккордов, табулатур и нот


The Cabs - Spiral Of Kielce - таба, видео

Регистрация Запомнить меня
Войти через:  Facebook Google Twitter Vk Yandex Mail.ru

The Cabs - Spiral Of Kielce - таба, видео

Печатать
Просмотров: 162
                             Kielcenorasen(Spiral of Kielce) - The Cabs
-------------------------------------------------------------------------------
Tabbed by: Moniitor
E-mail:R3tardojosh@gmail.com

Tuning: Standard Capo 6 fret

Notes: If you watch the live video here (https://www.youtube.com/watch?v=Mw54TRXZ2mw) you can hear the 
guitarist tuning his B string back down to B from C after the song is finished, so he actually plays this 
song in EADGCE w/ a capo 6th fret, at least live. 

However I started working this song out in standard so that's what I've tabbed it in. Tuning the B string 
this way lets you play the fast intro parts a tad bit easier, but I actually find it easier in standard, so
if you want to be more accurate you can tune up and just move every note on the B string down by a fret,
although I don't think it's necessary as every thing can be easily played in standard

I'll re-tab it for EADGCe at some point though.


Sound: Overdriven (I think he uses a BOSS blues driver to drive his amp more, I'm not too sure, in the live
video it's less distorted), single-coil neck pick up (he uses a telecaster live most of the time, although 
there pictures of him with strats as well)

Order at the bottom
____________________________________________________________________________________________________

Intro:
Part A
e|-------------------------------------------12/--|
B|-------------1p0------------------------13------|
G|---------0-------0--------------0----12---------|
D|-------0---0------------10p9h10---10------------|
A|-3p2h3------------------------------------------|
E|------------------------------------------------|

Part B
e|------------------------------------------------|
B|-------------1p0----------------------1h3p1-----|
G|---------0-------0------7p5/2-0-0-----------0---|
D|-------0---0----------------------2-5-----------|
A|-3p2h3------------------------------------------|
E|------------------------------------------------|

Verse 1:
e|-----------------------------------------------------|
B|-----------------------------------------------------|
G|-5-5--5-5-5--5-5---5-5-5---4-4--4-4-4--4-4---4-4-4---|
D|-5-5--5-5-5--5-5---5-5-5---5-5--5-5-5--5-5---5-5-5---|
A|-----------------------------------------------------|
E|-3-3--3-3-3--3-3---3-3-3---3-3--3-3-3--3-3---3-3-3---|
For these chords he might leave the A string open I'm not too sure.

Bridge:
e|----------------------------------------------------------------------|
B|-8-8--8-8-8--8-8---8-8-8--8-------------------------------------------|
G|-5-5--5-5-5--5-5---5-5-5--5-------------------------------------------|
D|----------------------------(let the last strum of the chord ring out)|
A|-7-7--7-7-7--7-7---7-7-7--7-------------------------------------------|
E|----------------------------------------------------------------------|
The bassist has his fill here after the last chord

Verse 2:
e|---------------------------7--7-7-7-7---7--7-7-7-7---|
B|-8--8-8-8-8---8--8-8-8-8---0--0-0-0-0---0--0-0-0-0---|
G|-5--5-5-5-5---5--5-5-5-5---4--4-4-4-4---4--4-4-4-4---|
D|---------------------------5--5-5-5-5---5--5-5-5-5---|
A|-7--7-7-7-7---7--7-7-7-7---0--0-0-0-0---0--0-0-0-0---|
E|-----------------------------------------------------|
I can definitely hear that 7th fret on the high e in there, although no one else seems to play it in covers.


Bridge 2?:
Part A
e|----------------------------------------|
B|----------------------------------------|
G|--5-5-5-----5-5-5-----5-5-5-----5-5-5---|
D|--5-5-5-----5-5-5-----5-5-5-----5-5-5---|
A|--0-0-0---------------3-3-3-------------|
E|------------3-3-3---------------0-0-0---|
Okay this part is confusing as multiple covers play it like this and it seems to be really close
But, live I think he plays it like this:

Part A
e|----------------------------------------|
B|----------------------------------------|
G|----0-0-------0-0-------0-0-------0-0---|
D|----0-0-------0-0-------5-5-------0-0---|
A|----7-7-------5-5-----3-----------2-2---|
E|--5---------3--------(0-0-0)----0-------| Play whatever feels right to you

Part B
e|-----------------------------------------------------------8---|
B|---------------------------------------------8-----------------|
G|---------------------------------------------5-------------5---|
D|--2--------------3---------------------3-----------------------| Not 100% about this part tbh, but that's
A|--3--------------0---------------------0-----7-----------------| what some covers played.
E|----1-1-1-1-1-1----1-1-1-1-1-1-1-1-1-----------(0-0-0-0)-------|
      -----------    -----------------            -------

Part C
e|--8-7-8---7--7---10-10-10---15-15-15---|
B|---------------------------------------|
G|--5-5-5---------------------12-12-12---|
D|----------7--7---10-10-10--------------|
A|---------------------------------------|
E|---------------------------------------|

Outro:
Part A
e|--7-7-7-7---|
B|------------|
G|--5-5-5-5---|
D|------------|
A|------------|
E|------------|

Part B
e|-0-0--0-0---0--0-0---7-7--7-7---|
B|-0-0--0-0---0--0-0---0-0--0-0---|
G|-5-5--4-5---5--5-5---7-7--7-7---|
D|-5-5--5-5---5--5-5---5-5--5-5---|
A|-0-0--0-0---0--0-0---0-0--0-0---|
E|--------------------------------|

Part C
e|-0-0--0-0---0--0-0---7--7-7---8-8--8-8---|
B|-0-0--0-0---0--0-0---0--0-0---8-8--8-8---|
G|-5-5--4-5---5--5-5---7--7-7---5-5--5-5---|
D|-5-5--5-5---5--5-5---5--5-5--------------|
A|-0-0--0-0---0--0-0---0--0-0---7-7--7-7---|
E|-----------------------------------------|


That's pretty much it, I'm 95% sure it's correct but tell me if its wrong.

Order
_____________

Intro:
A x1
B x1
A x1
B x1
A x1
B x1
A x1
B x1

Verse 1 x4

Intro:
A x1
B x1
A x1
B x1

Bridge 1 x1

Verse 2 x 2

Bridge 2:
A x4
B x1
C x1

Intro:
A x1
B x1
A x1
B x1

Outro
A x1
B x1
C x1




************************************

| /   slide up
| \   slide down
| h   hammer-on
| p   pull-off
| ~   vibrato
| +   harmonic
| x   Mute note
| b   Bend
| pb  Pre-bend
| br  Bend release
| pbr Pre-bend release
| brb Bend release bend
| --- Palm mute
| (x) Optional, x being the fret

************************************
Добавлено: 05.08.2015
Другие материалы по этой песне:
  • Аккорды и текст

Страница создана 05.08.2015
http://primanota.ru/the-cabs/spiral-of-kielce-chords.htm
Привет, Гость.
Предлагаем пройти революционный курс по гитаре.
Подарок от PrimaNota.Ru, забирай!