PrimaNota.ru - самый крупный в мире бесплатный архив песенных текстов, аккордов, табулатур и нот


The Burning Of Rome - Ballad Of An Onion Sprout - таба, видео

Регистрация Запомнить меня
Войти через:  Facebook Google Twitter Vk Yandex Mail.ru

The Burning Of Rome - Ballad Of An Onion Sprout - таба, видео

Печатать
Просмотров: 82
-------------------------------------------------------------------------------
                             Ballad of an Onion Sprout - The Burning of Rome
-------------------------------------------------------------------------------

Intro/Verse with a down/upstroke pattern
Chords: Bb                                  F
e|--6--6-6--6--6-6--6---6--6-6--6--6-6--6---1--1-1--1--1-1--1---1--1-1--1--1-1--1-1---------|
B|--6--6-6--6--6-6--6---6--6-6--6--6-6--6---1--1-1--1--1-1--1---1--1-1--1--1-1--1-1---------|
G|--7--7-7--7--7-7--7---7--7-7--7--7-7--7---2--2-2--2--2-2--2---2--2-2--2--2-2--2-2---------|
D|--8--8-8--8--8-8--8---8--8-8--8--8-8--8---3--3-3--3--3-3--3---3--3-3--3--3-3--3-3---------|
A|--8--8-8--8--8-8--8---8--8-8--8--8-8--8---3--3-3--3--3-3--3---3--3-3--3--3-3--3-3---------|
E|--6--6-6--6--6-6--6---6--6-6--6--6-6--6---1--1-1--1--1-1--1---1--1-1--1--1-1--1-1---------|

Synth Lead
e|------------------------------------------------------------------------------------------|
B|--------------------------------10-----------------------10-------------------------------|
G|--12--12-10-----12--10----12-10----12-10--12-10----12-10----12-10-7-5-2-5--7-7-7-7-5-2-5--|
D|------------12---------12-----------------------12----------------------------------------|
A|------------------------------------------------------------------------------------------|
E|------------------------------------------------------------------------------------------|

Chorus
Chords: G               Bb(4th time strum for 12 counts into bridge) F
e|--3--3-3--3--3-3--3---6--6-6--6--6-6--6---1--1-1--1--1-1--1--1--1-1--1--1-1--1-1----------|
B|--3--3-3--3--3-3--3---6--6-6--6--6-6--6---1--1-1--1--1-1--1--1--1-1--1--1-1--1-1----------|
G|--4--4-4--4--4-4--4---7--7-7--7--7-7--7---2--2-2--2--2-2--2--2--2-2--2--2-2--2-2----------|
D|--5--5-5--5--5-5--5---8--8-8--8--8-8--8---3--3-3--3--3-3--3--3--3-3--3--3-3--3-3----------|
A|--5--5-5--5--5-5--5---8--8-8--8--8-8--8---3--3-3--3--3-3--3--3--3-3--3--3-3--3-3----------|
E|--3--3-3--3--3-3--3---6--6-6--6--6-6--6---1--1-1--1--1-1--1--1--1-1--1--1-1--1-1----------|

Chorus Synth
e|---------------------------------------------------------------------------|
B|---------------------------------------------------------------------------|
G|--5--7--10~---5--7--10~--5--7--10~-----------------------------------------|
D|---------------------------------------------------------------------------|
A|---------------------------------------------------------------------------|
E|---------------------------------------------------------------------------|

Bridge               x3 then:                                Last time strum into the verse: x16
e|--8--8---8---6-6--6-6--|--6--6-6--6-6-6--6--6-6--6-6-6--|--8------------------------------|
B|--8--8---8---6-6--6-6--|--6--6-6--6-6-6--6--6-6--6-6-6--|--8------------------------------|
G|--10-10--10--8-8--7-7--|--8--8-8--8-8-8--7--7-7--7-7-7--|--10-----------------------------|
D|--10-10--10--8-8--8-8--|--8--8-8--8-8-8--8--8-8--8-8-8--|--10-----------------------------|
A|--8--8---8---6-6--8-8--|--6--6-6--6-6-6--8--8-8--8-8-8--|--8------------------------------|
E|--8--8---8---6-6--6-6--|--6--6-6--6-6-6--6--6-6--6-6-6--|--8------------------------------|

Bridge Synth
e|------------------------------------------------------------------------------------------|
B|------------------------------------------------------------------------------------------|
G|--13-12-10-8-10-7---13-12-10-8-10-7-10---13-12-10-8-10-7-10-8--10-8-7--8--10--------------|
D|------------------------------------------------------------------------------------------|
A|------------------------------------------------------------------------------------------|
E|------------------------------------------------------------------------------------------|

and that's it! pretty simple song i hope the new album comes out soon!!
here's the promo video http://www.youtube.com/watch?v=RriYvnj54Xo
band website: http://theburningofrome.com/
Добавлено: 06.06.2013
Другие материалы по этой песне:
  • Аккорды и текст

Страница создана 06.06.2013
http://primanota.ru/the-burning-of-rome/ballad-of-an-onion-sprout-chords.htm
Привет, Гость.
Предлагаем пройти революционный курс по гитаре.
Подарок от PrimaNota.Ru, забирай!