PrimaNota.ru - самый крупный в мире бесплатный архив песенных текстов, аккордов, табулатур и нот


The Burned - Hard Lesson - таба, видео

Регистрация Запомнить меня
Войти через:  Facebook Google Twitter Vk Yandex Mail.ru

The Burned - Hard Lesson - таба, видео

Печатать
Просмотров: 356
SONG:   HARD LESSON
ARTIST: THE BURNED
ALBUM:  THE BURNED
TAB BY: DON CZARSKI
EMAIL:  GUITARZAN7@HOTMAIL.COM

                      HARD  LESSON
                       THE BURNED

GUITAR 1: Plays this throughout the song
E ---------------------|
B ---------------------|
G ---------------------|
D ---------------------|
A ---------------------|
E -0-0-0-0-0-0-3-5-----|

GUITAR 1 ONLY PLAYS UNTIL GUITAR 2 COMES IN:

It's late at night and I think of you 
And all those things you like to do 
Still got your flavor on me 
Yeah I can taste your memory
 
Yeah, I've been hypnotized 
Your serpent circles mine 
My fingers in the fruit of life 
I can't wait to take another bite
 
NO GUITAR:
Because you got what I want 
Your everything come give it up for me 

GUITAR 2 BEGINS PLAYING:
GUITAR 2: 
E ---------------------------|------------------|
B ---------------------------|------------------|
G ---------------------------|------------------|
D -----------------5-5--2~---|------------------|
A --------------5------------|--------1~0-------|
E --0-3-5-7------------------|-0-3-5-------3-0--|

A hard lesson to learn
A hard lesson to learn
A hard lesson to learn ...END GUITAR 2
 
GUITAR 1:
You always want what you can't have 
I don't believe in I can't have 
You feel my need for being bad 
And I'm addicted to a good habit 
Just like a heavy drug 
Mixed up inside my blood 
Controlling every thought 
Come help me work it out 

NO GUITAR:
Because you know what I want 
Come give it up you're everything I need 

GUITAR 2 BEGINS PLAYING:
GUITAR 2: 
E ---------------------------|------------------|
B ---------------------------|------------------|
G ---------------------------|------------------|
D -----------------5-5--2~---|------------------|
A --------------5------------|--------1~0-------|
E --0-3-5-7------------------|-0-3-5-------3-0--|

A hard lesson to learn 
A hard lesson to learn
A hard lesson to learn
A hard lesson to learn

GUITAR 1 and 2 PLAY:
G
How fast can you cure my madness 
Em
Break dishes and smash the glasses 
C
I crawl around in the underneath 
        Em
These scorpions keep stinging me 
G
No reason to my actions 
Em                               C
Something deep inside me has it out for you 

NO GUITAR:
Because you've got what I want 
My everything come give it up for me 

GUITAR 2 BEGINS PLAYING:
GUITAR 2: 
E ---------------------------|------------------|
B ---------------------------|------------------|
G ---------------------------|------------------|
D -----------------5-5--2~---|------------------|
A --------------5------------|--------1~0-------|
E --0-3-5-7------------------|-0-3-5-------3-0--|

A hard lesson to learn
A hard lesson to learn
A hard lesson to learn
A hard lesson to learn

E ---------------|
B ---------------|
G ---------------|
D ---------------|
A ------1~0------|
E 0-3-5-----3-0--|

A hard lesson to learn
A hard lesson to learn

NO GUITAR:
A hard lesson to learn
Добавлено: 31.08.2013
Другие материалы по этой песне:
  • Аккорды и текст

Страница создана 31.08.2013
http://primanota.ru/the-burned/hard-lesson-chords.htm
Привет, Гость.
Предлагаем пройти революционный курс по гитаре.
Подарок от PrimaNota.Ru, забирай!