PrimaNota.ru - самый крупный в мире бесплатный архив песенных текстов, аккордов, табулатур и нот


The Budos Band - Ride Or Die - бас-таба, видео

Регистрация Запомнить меня
Войти через:  Facebook Google Twitter Vk Yandex Mail.ru

The Budos Band - Ride Or Die - бас-таба, видео

Печатать
Просмотров: 159
Song: Ride Or Die
Album: The Budos Band II
Artist: The Budos Band

For a five string: This song is in standard tuning (B,E,A,D,G)
For a four string: This song is in drop D tuning (D,A,D,G)

I'm writing both the five string and four string versions, the five string version is first.

G---------|
D---------|
A-----2~--|
E--3------|
B---------|

G--------------------------------|
D--------------------------------|
A--------------------------------|
E--0--0--1-1--2---2--3-3---------|
B------------------------3-------| Repeat until 0:54

0:54
G-------------------|
D-------------------|
A-------------------|
E-------00000-------|
B-------------------|

G-----------------------------------------------------|
D----------------9-7----------------------------------|
A-----5--7--7\9-------9-7-----------------------------|
E--7-----------------------9--9----9-----9-9--9-9-----|
B-------------------------------9-----9---------------| Repeat 3x

G-----------------------------------------------------|
D----------------9-7----------------------------------|
A-----5--7--7\9-------9-7-----------------------------|
E--7-----------------------9--9----9------9-----------|
B-------------------------------9--------9------------|

1:32
G--------------------------------|
D--------------------------------|
A--------------------------------|
E--0--0--1-1--2---2--3-3---------|
B------------------------3-------| Repeat 6x

2:00
G------------------------------------------|
D-------5--3--1--------757-5---------------|
A--5-5---------0--5-5---------757-5--3-----|
E------------------------------------------|

G--------------------------------|
D--------------------------------|
A--------------------------------|
E--0--0--1-1--2---2--3-3---------|
B------------------------3-------| Repeat 2x

2:17
G-------------------|
D-------------------|
A-------------------|
E-------00000-------|
B-------------------|

2:20
G--------------------------------|
D--------------------------------|
A--------------------------------|
E--0--0--1-1--2---2--3-3---------|
B------------------------3-------| Repeat until 2:55

2:55
G------------------------------------------|
D-------5--3--1--------757-5---------------|
A--5-5---------0--5-5---------757-5--3-----|
E------------------------------------------|

G--------------------------------|
D--------------------------------|
A--------------------------------|
E--0--0--1-1--2---2--3-3---------|
B------------------------3-------| Repeat 2x

3:15
G-------------------|
D-------------------|
A-------------------|
E-------22222-------|
B-------------------| Repeat 6x

|-----------------------END OF FIVE STRING TAB----------------------------|

Drop D Four String Tab

G---------|
D---------|
A-----2~--|
D--5------|

G--------------------------------|
D--------------------------------|
A--------------------------------|
D--2--2--3-3--4---4--5-5--0------| Repeat until 0:54

0:54
G-------------------|
D-------------------|
A-------------------|
D-------22222-------|

G--------------------------------------------------------------|
D----------------9-7-------------------------------------------|
A-----5--7--7\9-------9-7--------------------------------------|
D--9-----------------------11--11-7---11----7-11-11--11-11-----| Repeat 3x

G-----------------------------------------------------------|
D----------------9-7----------------------------------------|
A-----5--7--7\9-------9-7-----------------------------------|
D--9-----------------------11--11-7---11-7-----11-----------|

1:32
G--------------------------------|
D--------------------------------|
A--------------------------------|
D--2--2--3-3--4---4--5-5--0------| Repeat 6x

2:00
G------------------------------------------|
D-------5--3--1--------757-5---------------|
A--5-5---------0--5-5---------757-5--3-----|
D------------------------------------------|

G--------------------------------|
D--------------------------------|
A--------------------------------|
D--2--2--3-3--4---4--5-5--0------| Repeat 2x

2:17
G-------------------|
D-------------------|
A-------------------|
D-------22222-------|

2:20
G--------------------------------|
D--------------------------------|
A--------------------------------|
D--2--2--3-3--4---4--5-5--0------| Repeat until 2:55

2:55
G------------------------------------------|
D-------5--3--1--------757-5---------------|
A--5-5---------0--5-5---------757-5--3-----|
D------------------------------------------|

G--------------------------------|
D--------------------------------|
A--------------------------------|
D--2--2--3-3--4---4--5-5--0------| Repeat 2x

3:15
G-------------------|
D-------------------|
A-------------------|
D-------22222-------| Repeat 6x

Tabbed by: Max Dietz
Добавлено: 27.06.2013
Вам также может быть интересно:
Другие материалы по этой песне:
  • Аккорды и текст

Страница создана 27.06.2013
http://primanota.ru/the-budos-band/ride-or-die-chords.htm
Привет, Гость.
Предлагаем пройти революционный курс по гитаре.
Подарок от PrimaNota.Ru, забирай!