PrimaNota.ru - самый крупный в мире бесплатный архив песенных текстов, аккордов, табулатур и нот


The Budos Band - Natures Wrath - таба, видео

Регистрация Запомнить меня
Войти через:  Facebook Google Twitter Vk Yandex Mail.ru

The Budos Band - Natures Wrath - таба, видео

Печатать
Просмотров: 85
-------------------------------------------------------------------------------
                    Natures Wrath - Budos Band  (Budos Band III)
-------------------------------------------------------------------------------
Tabbed by: ignaciomendez
E-mail: ignacio.mendeznunez@gmail.com

Tuning: Standard

 Horn Intro 
e|---------------------------------------------------------------------------|
B|---------------------------------------------------------------------------|
G|---------------------------------------------------------------------------|
D|---3h4p3h4p3h4p3h4p3-------------------------------------------------------|
A|---------------------------------------------------------------------------|
E|---------------------------------------------------------------------------|

Main Riff
e|---------------------------------------------------------------------------|
B|---------------------------------------------------------------------------|
G|---------------------------------------------------------------------------|
D|-----------------------8---------------------------------------------------|
A|-----------8-9-----8-9---9------8-9-8--------------------------------------|
E|--6---8-9---------------------9----------9-8---7---------------------------|

Riff (Chorus) @0:53
e|---------------------------------------------------------------------------|
B|---------------------------------------------------------------------------|
G|---------------------------------10----------------------------------------|
D|--------8---/10---8--10--11---------11-10-----11--10-----------------------|
A|-----8--------------------------------------------------8------------------|
E|--6---------------------------------------------------------6--------------|

e|---------------------------------------------------------------------------|
B|---------------------------------------------------------------------------|
G|---------------------------------------------------------------------------|
D|---------------------------------------------------------------------------|
A|---------------------------------------------------------------------------|
E|---------------------------------------------------------------------------|



************************************

| /   slide up
| \   slide down
| h   hammer-on
| p   pull-off
| ~   vibrato
| +   harmonic
| x   Mute note
| b   Bend
| pb  Pre-bend
| br  Bend release
| pbr Pre-bend release
| brb Bend release bend

************************************
Добавлено: 12.06.2016
Другие материалы по этой песне:
  • Аккорды и текст

Страница создана 12.06.2016
http://primanota.ru/the-budos-band/natures-wrath-chords.htm
Привет, Гость.
Предлагаем пройти революционный курс по гитаре.
Подарок от PrimaNota.Ru, забирай!