PrimaNota.ru - самый крупный в мире бесплатный архив песенных текстов, аккордов, табулатур и нот


The Brilliant Green - Angel Song - таба, видео

Регистрация Запомнить меня
Войти через:  Facebook Google Twitter Vk Yandex Mail.ru

The Brilliant Green - Angel Song - таба, видео

Печатать
Просмотров: 146
Уроки эстрадного вокала в Санкт-Петербурге
Tune 1/2 step down  (Eb)
-----------------

  Cº: x342xx
   G: 320003
G|f#: 200030
  Em: 022000
   D: xx0232
 C+9: x32030 
 Em7: 022030
  Cm: x35543
  Bm: x24432
 Em*: x79xxx
EmM7: x69xxx
Em7d: x57xxx
   A: x02220

-----------------

INTRO:

VERSE 1:
  Cº           G         Cº              G
kiri no kakaru sora ni kane wa nariwatari
  Cº          G      G(f#)    Em  D       C(9)
yoru to iu yashiki tooi sora no koibito e
  Cº            G     Cº               G
tameiki wa koyoi mo yuki ni tozasereshi
  Cº               G     G(f#)      Em7 D       C(9)
bara no kusari wo hiku kiyoraka nate furetakute


CHORUS:
Cm                G              Em7
the angel song... sasayaite kono mimimoto mi
   C+9                   Cm        D
tenshi no utagoe ga kono sora wo kogasu you ni
G              Em7
setsunakute anata no tame ni
     C+9                  Cm         D      G
sora wo miageru tabi yuki no keshiki wo omotta
   Cm      G
[wasurenai...]


VERSE 2:
   Cº             G     Cº            G
tsubasa aru tegami yo subete azukeyou!
  Cº             G    G(f#)       Em7  D         C+9
sumui kono yozara ni akai tsuki to    ivu no kane


CHORUS 2:
Cm                G                Em7
the angel song... aitakute sora wo miageta
   C+9                   Cm      D
anata wo kureta hane ima mo tooi madobe ni
G             Em7
omoide wa utsukushii kedo
    C+9                   Cm        D        G
yagate tokete shimau yuki ni naru nara hayaku


BRIDGE & SOLO: (Solo at bottom of page)
Em   Bm C         Em   Bm    C
tsukamaete    dakishimete hoshii...yeah
|G   |Em7   |C+9   |Cm D |
|G   |Em7   |C+9   |Cm D |
Em*       EmM7    Em7d      A     Cm   
kazu shirenu omoi wo nose nagareteku...***


CHORUS 3:
G              Em      
sasayaite kono miminoto ni
   C                     Cm        D
tenshi no utagoe ga kono mune wo kogashiteku!
G            Em7
aohiroi kono yukizora ni
    C+9                  Cm          D
kurisumasu wo tsugeru tenshi no kane ga hiniku
G              Em7                 C+9  Cm D
koko ni ite seinaru hoshi no shita...

G                Em7
setsunakute sora wo miageta
    C+9                   Cm         D      G
itsuka misete kureta yuki no keshiki wo omotta
  Cm     G
wasurenai
   Cm     G
[wasurenai...]



SOLO:

   G                                      Em7
e|--------------------------------------|--------------------15-15-15-15-15-15-15-15-15-15-|
B|-12h13-//-/-//-12h13-//-(12)h13-12-13-|-/15-15-17-17 19 19-------------------------------|
G|-12-12-//-/-//-12-12-//------12-12-12-|--------------------------------------------------|
D|--------------------------------------|--------------------------------------------------|
A|--------------------------------------|--------------------------------------------------|
E|--------------------------------------|--------------------------------------------------|
   
   C+9                                    Cm                    D
e|-15-14--------------------------------|-------W.C----------------------------------|
B|-------15-13-12-13^13--12----12-------|-12----^14-14-12----12-12----12-12-12----12-|
G|--------------------------12-12-11-12-|----14-^14-14-12----12-12----12-12-12----12-|
D|--------------------------------------|-----------------14-------14----------14----|
A|--------------------------------------|--------------------------------------------|
E|--------------------------------------|--------------------------------------------|

   G                                      Em7
e|--------------------------------------|------------------------------------------|
B|--------------------------------------|-------12---13-12-13/15--13p12-13---12----|
G|----------------------------------11--|-12------12----------------------------12-|
D|-12-12-12--10--9--10---9-----9-12-----|------------------------------------------|
A|-------------------------10-----------|------------------------------------------|
E|--------------------------------------|------------------------------------------|

   C+9                                    Cm                    D
e|-----15----14-15----17----15-14-15-17-|-17/19-19-19-\15-14-15--14------------|
B|-/15----15-------15----15-------------|-----H.C------------------15-13-12h13-|
G|--------------------------------------|--------------------------------------|
D|--------------------------------------|--------------------------------------|
A|--------------------------------------|--------------------------------------|
E|--------------------------------------|--------------------------------------|
 
   Em*            EmM7              Em7d             A
e|--------------------------------|--------------------------------|
B|-12-----------------------------|--------------------------------|
G|--------------------------------|--------------------------------|
D|--------------------------------|--------------------------------|
A|--------------------------------|--------------------------------|
E|--------------------------------|--------------------------------|
   kazu   shire - nu omoi           wo   nose   na - garete

   Cm                               
e|--------------------------------|--------------------------------|
B|--------------------------------|--------------------------------|
G|--------------------------------|--------------------------------|
D|--------------------------------|--------------------------------|
A|--------------------------------|--------------------------------|
E|--------------------------------|--------------------------------|
   ku...
Добавлено: 09.03.2012
Другие материалы по этой песне:
  • Аккорды и текст

Страница создана 09.03.2012
http://primanota.ru/the-brilliant-green/angel-song-chords.htm
Привет, Гость.
Предлагаем пройти революционный курс по гитаре.
Подарок от PrimaNota.Ru, забирай!