PrimaNota.ru - самый крупный в мире бесплатный архив песенных текстов, аккордов, табулатур и нот


The Bright Light Social Hour - Rhubarb Jam - таба, видео

Регистрация Запомнить меня
Войти через:  Facebook Google Twitter Vk Yandex Mail.ru

The Bright Light Social Hour - Rhubarb Jam - таба, видео

Печатать
Просмотров: 79
This is the tab of Rhubarb Jam, The Bright Light Social Hour.
Hope you enjoy! :) 

http://www.thebrightlightsocialhour.com/

e|------------------------------------------------------------|
B|--15p13--13-15p13-15p13--13-15p13-15p13...--13--10--8--6--8-|
G|-------14--------------14-----------------14----10--9--7--9-|
D|------------------------------------------------------------|
A|------------------------------------------------------------|
E|------------------------------------------------------------|

e|--15p13--13-15p13-15p13--13-15p13-15p13...--13--------------|
B|-------15--------------15-----------------15----10--8--6--5-|
G|------------------------------------------------10--9--7--5-|
D|------------------------------------------------------------|
A|------------------------------------------------------------|
E|------------------------------------------------------------|


e|-20---19---18---17-|--------------------------|
B|-22---21---20---18-|-18---17---16---15----3~--|
G|-------------------|-19---18---17---16----2~--| after the two riffs above
D|-------------------|----------------------0~--|
A|-------------------|--------------------------|
E|-------------------|--------------------------|

e|-5~--5~--5~--5~-|    
B|-6~--6~--6~--6~-|    
G|-7~--7~--7~--7~-|   
D|----------------|    
A|----------------|    
E|----------------|    

e|-----------------------------------|
B|--6-8-10-8--6/8------6-8-10-8--10~-|
G|--7-9-10-9--7/9--...-7-9-10-9--10~-| 
D|-----------------------------------|
A|-----------------------------------|
E|-----------------------------------|

e|-------------------------------------------|
B|--10-12-13-12--10/12------10-12-13-12--13~ |
G|--10-12-14-12--10/12--...-10-12-14-12--14~-|
D|-------------------------------------------|
A|-------------------------------------------|
E|-------------------------------------------|

Continue playing and improvise a solo until the final part

e|--------------------------------------|
B|--3-3-3~------------------------------|
G|--2-2-2~---5-5-5~---4-4-4~--3-3-3-3-4-|
D|--0-0-0~---5-5-5~---5-5-5~--3-3-3-3-5-|
A|-----------3-3-3~---2-2-2~--1-1-1-1-2-|
E|--------------------------------------|
Добавлено: 07.04.2012
Другие материалы по этой песне:
  • Аккорды и текст

Страница создана 07.04.2012
http://primanota.ru/the-bright-light-social-hour/rhubarb-jam-chords.htm
Привет, Гость.
Предлагаем пройти революционный курс по гитаре.
Подарок от PrimaNota.Ru, забирай!