PrimaNota.ru - самый крупный в мире бесплатный архив песенных текстов, аккордов, табулатур и нот


The Bright Light Social Hour - Infinite Cities - таба, видео

Регистрация Запомнить меня
Войти через:  Facebook Google Twitter Vk Yandex Mail.ru

The Bright Light Social Hour - Infinite Cities - таба, видео

Печатать
Просмотров: 69
Tabs by Huib van Rijt

If you don't agree with the tabs or if something isn't clear, feel free to comment 
and share your knowledge ;).
/ = slide
()= optional note ( played originally by the bass)

Enjoy!

intro

E|-----------------------------------------------------------|
B|-----------------------------------------------------------|
G|-4----4--4-------6---6------7---7-7-7---7-7-----7----------|
D|-5----5--5-------7---7------9---9-9-9---9-9-----9----------|                  (2x)
A|-----------------------------------------------------------|
E|-----------------------------------------------------------|

E|-----------------------------------------------------------|
B|------7------7----------------5---5-5---5-5---5------------|
G|------7------7----------------6---6-6---6-6---6------------|                  (2x)
D|---------(9)---(9)------------7---7-7---7-7---7------------|
A|-----------------------------------------------------------|
E|-----------------------------------------------------------|

Verse

E|-----------------------------------------------------------|
B|-----------------------------------------------------------|
G|-4----4--4-------6---6------7------------------------------|
D|-5----5--5-------7---7------9------------------------------|                   (2x)
A|-----------------------------------------------------------|
E|-----------------------------------------------------------|

E|----------------------------------------------------------|
B|------7------7----------------5---------------------------|
G|------7------7----------------6---------------------------|                    (2x)
D|---------(9)---(9)------------7---------------------------|
A|----------------------------------------------------------|
E|----------------------------------------------------------|


Chorus

E|-------------------------------------------------------|
B|-------------------------------------------------------|
G|-4----4--4-------6---6------7---7-7-7---7-7-----7------|
D|-5----5--5-------7---7------9---9-9-9---9-9-----9------|                       (2x)
A|-------------------------------------------------------|
E|-------------------------------------------------------|

E|----------------------------------------|
B|------7------7----------------5---------|
G|------7------7----------------6---------|                                       (2x)
D|---------(9)---(9)------------7---------|
A|----------------------------------------|
E|----------------------------------------|

Solo (played with a bottleneck)
E|-------------------------------------------|
B|-----7---7---7---7-----7/14----------------|
G|-------7---7---7---7---7/14----------------|
D|-------------------------------------------|
A|-------------------------------------------|
E|-------------------------------------------|


E|-------------------------------------------|
B|-----7---7---7---7-----7/2-----------------|
G|-------7---7---7---7---7/2-----------------|
D|-------------------------------------------|
A|-------------------------------------------|
E|-------------------------------------------|

E|-----------------------------------------------|
B|-----7---7---7---7-----7/14---14---------------|
G|-------7---7---7---7---7/14-------14----14-----|
D|-------------------------------------------14--|
A|-----------------------------------------------|
E|-----------------------------------------------|

E|----------------------------------------------|
B|-----7---7---7---7-----7/2 -------/19---------|
G|-------7---7---7---7---7/2 -------/19---------|
D|----------------------------------------------|
A|----------------------------------------------|
E|----------------------------------------------|

E|----------------------------------------------|
B|-------------7/5/7 ----------10/5-5-----------|
G|------7--7------------------------------------|                              (2x)
D|----------------------------------------------|
A|----------------------------------------------|
E|----------------------------------------------|

E|----------------------------------------------|
B|--------12/0 ---------------------------------|
G|--------12/0----------------------------------|
D|----------------------------------------------|
A|----------------------------------------------|
E|----------------------------------------------|
Добавлено: 23.12.2015
Другие материалы по этой песне:
  • Аккорды и текст

Страница создана 23.12.2015
http://primanota.ru/the-bright-light-social-hour/infinite-cities-chords.htm
Привет, Гость.
Предлагаем пройти революционный курс по гитаре.
Подарок от PrimaNota.Ru, забирай!