PrimaNota.ru - самый крупный в мире бесплатный архив песенных текстов, аккордов, табулатур и нот


The Brew - The Girls What I Want - таба, видео

Регистрация Запомнить меня
Войти через:  Facebook Google Twitter Vk Yandex Mail.ru

The Brew - The Girls What I Want - таба, видео

Печатать
Просмотров: 101
----------------------------------------------------------------------------
The Brew
The Girls What I Want
Unreleased
www.thebrew.biz
----------------------------------------------------------------------------
Tabbed by: Logan Salminen
email: loganmoeron@yahoo.com


(disclamer: as I put before all the tunes I try to transcribe, this is the artists work 
I am only doing my best to interpret it. And Davey D is a master jedi and i can't really 
a lot of the licks he has...but here's my best shot)


the intro/verse riff is played with some delay with hammers/pulls between
the open high e and an f#.

e|---0202020-5-3-2--02-------------------------------------|
B|---------------------------------------------------------|
G|---------------------------------------------------------|
D|---------------------------------------------------------|
A|---------------------------------------------------------|
E|---------------------------------------------------------|

the bridge is over lyrics something like this –
“i would give you this life in a minute
if you show me the other side”
and the root notes are just A,G#,G,F#
with a rest on the F#


Dave plays these notes over each bar of the chorus

e|--2---2--0----0-------0------0---0-----------------------|
B|----0-------0----0--3---3--2---2---2---------------------|
G|---------------------------------------------------------|
D|---------------------------------------------------------|
A|---------------------------------------------------------|
E|---------------------------------------------------------|

For the break Dave brings the delay back in and just bounces between
The high e and f# with hammers/pulls

e|-0-2-0-2-0-2-0-2-0-2--------------------------------------------|
B|----------------------------------------------------------------|
G|----------------------------------------------------------------|
D|----------------------------------------------------------------|
A|----------------------------------------------------------------|
E|----------------------------------------------------------------|

then it's the heavier Arabic sounding riff

e|----------------------------------------------------------------|
B|----------------------------------------------------------------|
G|----------------------------------------------------------------|
D|-----9-9/7---5-5/4----------------------------------------------|
A|----------------------7-7/6-------------------------------------|
E|--7----------------------------8-8/7----------------------------|

for the jam you can use this scale up and down

e|-----------------------------------------------------12-14-15---|
B|-----------------------------------7-8-10-12-13-----------------|
G|-----------------------------8-9--------------------------------|
D|-------------------7-9-10---------------------------------------|
A|-------6-7-9-10-------------------------------------------------|
E|-7-8------------------------------------------------------------|

and the ending riff coming out of the jam is in that same scale..
something like this.

e|----14/15/14------------------------------------------------------|
B|--------------12/13/12--10-8-7---------------7--------------------|
G|-----------------------------------9-8----8-9----9-8--------------|
D|----------------------------------------9--------------10-9-------|
A|------------------------------------------------------------------|
E|------------------------------------------------------------------|
Добавлено: 10.06.2012
Другие материалы по этой песне:
  • Аккорды и текст

Страница создана 10.06.2012
http://primanota.ru/the-brew/the-girls-what-i-want-chords.htm
Привет, Гость.
Предлагаем пройти революционный курс по гитаре.
Подарок от PrimaNota.Ru, забирай!