PrimaNota.ru - самый крупный в мире бесплатный архив песенных текстов, аккордов, табулатур и нот


The Boppers - Oh Pretty Woman - аккорды и текст, видео

Регистрация Запомнить меня
Войти через:  Facebook Google Twitter Vk Yandex Mail.ru

The Boppers - Oh Pretty Woman - аккорды и текст, видео

Печатать
Просмотров: 53
Уроки эстрадного вокала в Санкт-Петербурге
Oh Pretty Woman
The Boppers
The Boppers - Oh, Pretty Woman
Tabbed by: anderssoncaro
---------------------------------
No Capo

Intro:

Riff 1:
E|-------------------------|             
B|-------------------------|             
G|-------------------------| x2            
D|-----------0-------------|            
A|---------2---------------|             
E|-0--0--4-----------------|             

Riff 2:
E|-------------------------|
B|-------------------------|
G|-------------------------| x4
D|-------------0--4--2--0--|  
A|----------2--------------|
E|-0--0--4-----------------|

       A              F#m
Pretty woman, walkin' down the street
       A                F#m
Pretty woman the kind I like to meet
       D               E
Pretty woman I don't believe you, you're not the truth

No one could look as good as you


Riff 2:
E|-------------------------|
B|-------------------------|
G|-------------------------| x4
D|-------------0--4--2--0--|  
A|----------2--------------|
E|-0--0--4-----------------|

       A               F#m
Pretty woman won't you pardon me
       A                F#m
Pretty woman I couldn't help but see
       D                   E
Pretty woman that you look lovely as can be

Are you lonely just like me


Riff 2:
E|-------------------------|
B|-------------------------|
G|-------------------------| x4
D|-------------0--4--2--0--|  
A|----------2--------------|
E|-0--0--4-----------------|


Dm            G
 Pretty woman stop awhile
C             Am
 Pretty woman talk awhile
Dm            G                  C
 Pretty woman give your smile to me
Dm            G 
 Pretty woman yeah, yeah, yeah
C             Am
 Pretty woman look my way
Dm            G                    C A
 Pretty woman say you'll stay with me
        F#m        D              E
 'Cause I need you, I'll treat you right
A             F#m  D          E
 Come with me baby, be mine tonight


       A           F#m
Pretty woman don't walk on by
       A           F#m
Pretty woman don't make me cry
       D           E
Pretty woman don't walk away, hey, OK

If that's the way it must be, OK

I guess I'll go on home, it's late

There'll be tomorrow night, but wait

What do I see?


Riff 1:
E|-------------------------|             
B|-------------------------|             
G|-------------------------| x2            
D|-----------0-------------|            
A|---------2---------------|             
E|-0--0--4-----------------|


       Riff 2
Is she walkin' back to me?

Yeah, she's walkin' back to me
               A
Oh, oh, pretty woman.
Добавлено: 26.05.2016
Другие материалы по этой песне:
  • Аккорды и текст

Страница создана 26.05.2016
http://primanota.ru/the-boppers/oh-pretty-woman-chords.htm
Привет, Гость.
Предлагаем пройти революционный курс по гитаре.
Подарок от PrimaNota.Ru, забирай!