PrimaNota.ru - самый крупный в мире бесплатный архив песенных текстов, аккордов, табулатур и нот


The Blue Van - There Goes My Love - таба, бас-таба, видео

Регистрация Запомнить меня
Войти через:  Facebook Google Twitter Vk Yandex Mail.ru

The Blue Van - There Goes My Love - таба, бас-таба, видео

Печатать
Просмотров: 191
There goes my love – The Blue Van
-----------------------------------------------------------------
Tabbed by: Magne
Email: magnelc@hotmail.com
Tuning: Standard (EADGBe)

This is my first tab - Enjoy

e|-----------------------------------------------------------------------|
B|--8------8--8--8---7--6--x-x-x-x--6-6-6-6-6--3-x-x-x-x--6--3--6--7--8--|
G|--9------9--9--9---8--7--x-x-x-x--7-7-7-7-7--4-x-x-x-x--7--4--7--8--9--|
D|--10-----10----10--9--8--x-x-x-x--8-8-8-8-8--5-x-x-x-x--8--5--8--9--10-|
A|------------10---------------------------------------------------------|
E|-----------------------------------------------------------------------|

e|----------------------------|
B|--x-x-x-x--8--8--8---8--8---|
G|--x-x-x-x--9--9--9---9--9---|
D|--x-x-x-x--10-10-10--10-10--|
A|----------------------------|
E|----------------------------|

e|----------------------------------------------------------------------------|
B|--8--x-x-x-x--8---8--8---7--6--x-x-x-x--6-6-6-6-6--3-x-x-x-x--6--3--6--7--8-|
G|--9--x-x-x-x--9---9--9---8--7--x-x-x-x--7-7-7-7-7--4-x-x-x-x--7--4--7--8--9-|
D|--10-x-x-x-x--10-----10--9--8--x-x-x-x--8-8-8-8-8--5-x-x-x-x--8--5--8--9-10-| 
A|------------------10--------------------------------------------------------|
E|----------------------------------------------------------------------------|

e|----------------------------|
B|--x-x-x-x--8--8--8---8--8---|
G|--x-x-x-x--9--9--9---9--9---|
D|--x-x-x-x--10-10-10--10-10--|
A|----------------------------|
E|----------------------------|

With your hands and fingertips. And please...

e|---------------------------------------------------------------|
B|---------------------------------------------------------------|
G|---------------------------------------------------------------|
D|---------------------------------------------------------------|
A|---------------------------------------------------------------|
E|--8-------6-----3---6---3---6---7--8---------------------------|

e|---------------------------------------------------------------|
B|---------------------------------------------------------------|
G|---------------------------------------------------------------|
D|---------------------------------------------------------------|
A|----------6----------------------------------------------------|
E|--8------------3---6---3---6---7--8----------------------------|

e|----------------------------------------------------------------------------|
B|--8--x-x-x-x--8---8--8---7--6--x-x-x-x--6-6-6-6-6--3-x-x-x-x--6--3--6--7--8-|
G|--9--x-x-x-x--9---9--9---8--7--x-x-x-x--7-7-7-7-7--4-x-x-x-x--7--4--7--8--9-|
D|--10-x-x-x-x--10-----10--9--8--x-x-x-x--8-8-8-8-8--5-x-x-x-x--8--5--8--9-10-| 
A|------------------10--------------------------------------------------------|
E|----------------------------------------------------------------------------|

e|----------------------------|
B|--x-x-x-x--8--8--8---8--8---|
G|--x-x-x-x--9--9--9---9--9---|
D|--x-x-x-x--10-10-10--10-10--|
A|----------------------------|
E|----------------------------|

e|----------------------------------------------------------------------------|
B|--8--x-x-x-x--8---8--8---7--6--x-x-x-x--6-6-6-6-6--3-x-x-x-x--6--3--6--7--8-|
G|--9--x-x-x-x--9---9--9---8--7--x-x-x-x--7-7-7-7-7--4-x-x-x-x--7--4--7--8--9-|
D|--10-x-x-x-x--10-----10--9--8--x-x-x-x--8-8-8-8-8--5-x-x-x-x--8--5--8--9-10-| 
A|------------------10--------------------------------------------------------|
E|----------------------------------------------------------------------------|

e|----------------------------|
B|--x-x-x-x--8--8--8---8--8---|
G|--x-x-x-x--9--9--9---9--9---|
D|--x-x-x-x--10-10-10--10-10--|
A|----------------------------|
E|----------------------------|

x - play 'note' with heavy muting

I didn't tab the whole song, but i tabbed as much as i could
Добавлено: 21.07.2012
Другие материалы по этой песне:
  • Аккорды и текст

Страница создана 21.07.2012
http://primanota.ru/the-blue-van/there-goes-my-love-chords.htm
Привет, Гость.
Предлагаем пройти революционный курс по гитаре.
Подарок от PrimaNota.Ru, забирай!