PrimaNota.ru - самый крупный в мире бесплатный архив песенных текстов, аккордов, табулатур и нот


The Blue Van - Love Shot - таба, видео

Регистрация Запомнить меня
Войти через:  Facebook Google Twitter Vk Yandex Mail.ru

The Blue Van - Love Shot - таба, видео

Печатать
Просмотров: 283
 You just can't find any Love Shot tabs on the internet, so I wrote one in standard 
tuning, might have some mistakes, but it should do the trick.



E-------------------------------------------------|
B-------------------------------------------------|
G---------5-10-7-5-7-5---------3-------10-10-7----| x2    - That should be the intro
D-------7-5-10-7-5-7-5-7---5-7-3-7-3-7-10-10-7----|
A-------7-3-8--5-3-5-3-7---5-7-5-7-3-7-8--8--5----|
E-5-5-5-5--------------5---3-5---5-5-5------------|


  "Call a doctor..."
E--------|
B--------|
G-5-7----|  x6
D-5-7----|
A-3-5----|
E--------|


"Just a sweet sensation..."
E-------|
B-------|
G-5-7~ -|
D-5-7~ -|
A-3-5~ -|
E-------|

"You got me love shot honey..."
E------------------------------------------------|
B------------------------------------------------|
G---------5-10-7-5-7-5-7~ -----3-------10-10-7~ -| x2
D-------7-5-10-7-5-7-5-7~ -5-7-3-7-3-7-10-10-7~ -|
A-------7-3-8--5-3-5-3-----5-7-5-7-3-7-8--8------|
E-5-5-5-5------------------3-5---5-5-5-----------|

"Relese me..."           "Control me..."
E-----------------------------------------------|
B-----------------------------------------------|
G-5~ -7~ ---5-10-7-5-7-5-7~ -7~ -5~ -3-3--5-7~ -|
D-5~ -7~ -7-5-10-7-5-7-5-7~ -5~ -3~ -3-3--3-7~ -|
A-3~ -5~ -7-3-8--5-3-5-3-----5~ -3~ -1-1--3-5~ -|
E---------5-------------------------------------|


After the second verse, there's a little solo:

E---------------------------------|
B---------------------------------|
G---------------------------------|
D-5-7--5-7--5-7-5-10~ -5-7--5-7---|
A-3-5--3-5--3-5-3-8~  -3-5--3-5---|
E---------------------------------|
Добавлено: 29.05.2012
Другие материалы по этой песне:
  • Аккорды и текст

Страница создана 29.05.2012
http://primanota.ru/the-blue-van/love-shot-chords.htm
Привет, Гость.
Предлагаем пройти революционный курс по гитаре.
Подарок от PrimaNota.Ru, забирай!