PrimaNota.ru - самый крупный в мире бесплатный архив песенных текстов, аккордов, табулатур и нот


The Blue Van - Lonely For Your Love - таба, видео

Регистрация Запомнить меня
Войти через:  Facebook Google Twitter Vk Yandex Mail.ru

The Blue Van - Lonely For Your Love - таба, видео

Печатать
Просмотров: 82
-------------------------------------------------------------------------------
                             Lonely for your love - The Blue Van
-------------------------------------------------------------------------------
Tabbed by:Malyy Igor
E-mail:malij1995@gmail.com

Tuning:standart
I just wanted to play this song a bit? and I didn't find any chords or tabs? so I did them myself. 
Hope they are accurate enough. Pay attention at transcription (strings are put vice versa).
Intro:
E|---------------------------3-----------------------------------------------|
A|----3-3--------1/-3-3--------5---5-----------------------------------------|
D|----5-5--------3/-5-5----------5-------------------------------------------|
G|----5-5-----------5-5------------------------------------------------------|
B|---------------------------------------------------------------------------|
e|---------------------------------------------------------------------------|
Verse:
E|-----------------------------1-1-----3-3------------3----------------------|
A|----3-3--------1/-3-3--------3-3-----5-5---3-3--------5---5----------------|
D|----5-5--------3/-5-5--------3-3-----5-5---5-5----------5------------------|
G|----5-5-----------5-5----------------------5-5-----------------------------|  x2
B|---------------------------------------------------------------------------|
e|---------------------------------------------------------------------------|
Chorus: 
(chords are played according to the rythm, I wrote each chord 4 times - for each strike)
E|---1---1---1---1-----------------------------------------------------------|
S|---3---3---3---3----3---3---3---3------------------------------------------|
D|---3---3---3---3----5---5---5---5------------------------------------------|
G|--------------------5---5---5---5------------------------------------------|  x3
B|---------------------------------------------------------------------------|
e|---------------------------------------------------------------------------|

E|---3---3---3---3-----1---1---1---1----------------------3------------------|
A|---5---5---5---5-----3---3---3---3-----3---3---3---3------5---5------------|
D|---3---3---5---5-----3---3---3---3-----5---5---5---5--------5--------------|
G|---------------------------------------5---5---5---5-----------------------|
B|---------------------------------------------------------------------------|
e|---------------------------------------------------------------------------|
Verse:
E|-----------------------------1-1-----3-3--------------3--------------------|
A|----3-3--------1/-3-3--------3-3-----5-5-----3-3--------5---5--------------|
D|----5-5--------3/-5-5--------3-3-----5-5-----5-5----------5----------------|
G|----5-5-----------5-5------------------------5-5---------------------------|  x2
B|---------------------------------------------------------------------------|
e|---------------------------------------------------------------------------|
Chorus: 
(chords are played according to the rythm, I wrote each chord 4 times - for each strike)
E|---1---1---1---1-----------------------------------------------------------|
A|---3---3---3---3----3---3---3---3------------------------------------------|
D|---3---3---3---3----5---5---5---5------------------------------------------|
G|--------------------5---5---5---5------------------------------------------|  x3
B|---------------------------------------------------------------------------|
e|---------------------------------------------------------------------------|

E|---3---3---3---3-----1---1---1---1----------------------3------------------|
A|---5---5---5---5-----3---3---3---3-----3---3---3---3------5---5------------|
D|---5---5---5---5-----3---3---3---3-----5---5---5---5--------5--------------|
G|---------------------------------------5---5---5---5-----------------------|
B|---------------------------------------------------------------------------|
e|---------------------------------------------------------------------------|
Solo: 
E|---------------------------------------------4-4-4-------------------------1-1-1|
A|--\-3-3-3--3-3-3-----------------------1-1-1-------3-3-3---------------0-0------|
D|-----------------1-1-(5)--3-3-3--1-0-0-------------------1-1---3-3-3--1---------|
G|----------------------0--------------------------------------0------------------|
B|--------------------------------------------------------------------------------|
e|--------------------------------------------------------------------------------|

E|---------------------------------------------4-4-4---------------3---------|
A|--\-3-3-3--3-3-3-----------------------1-1-1-------3-3-3-----------5---5---|
D|-----------------1-1-(5)--3-3-3--1-0-0-------------------1-1---------5-----|
G|----------------------0--------------------------------------0-------------|
B|---------------------------------------------------------------------------|
e|---------------------------------------------------------------------------|

E|--1-1-1-1-1-1-1-1--3-3-3-3-3-----------------------------------------------|
A|--1-1-1-1-1-1-1-1--4-4-4-4-6-8---6-6-6-6-6-6-6-6--br6-4---b6-6-4-----------|
D|-----------------------------8---5-5-5-5-5-5-5-5--------5--------5---------|
G|---------------------------------------------------------------------------|
B|---------------------------------------------------------------------------|
e|---------------------------------------------------------------------------|

E|--1-1-1-1-1-1-1-1--3-3-3-3-3--------8--6-------------------8-6-------------|
A|--1-1-1-1-1-1-1-1--4-4-4-4-6--8-----------8--6--8--6--b6-------8-b6---8----|
D|------------------------------8--------------------------------------b8----|
G|---------------------------------------------------------------------------|
B|---------------------------------------------------------------------------|
e|---------------------------------------------------------------------------|
Chorus: 
(chords are played according to the rythm, I wrote each chord 4 times - for each strike)
E|---1---1---1---1-----------------------------------------------------------|
A|---3---3---3---3----3---3---3---3------------------------------------------|
D|---3---3---3---3----5---5---5---5------------------------------------------|
G|--------------------5---5---5---5------------------------------------------|  x3
B|---------------------------------------------------------------------------|
e|---------------------------------------------------------------------------|

E|---3---3---3---3-----1---1---1---1-----3---3---3---3----1---1---1---1------|
A|---5---5---5---5-----3---3---3---3-----5---5---5---5----3---3---3---3------|
D|---5---5---5---5-----3---3---3---3-----5---5---5---5----3---3---3---3------|
G|---------------------------------------------------------------------------|
B|---------------------------------------------------------------------------|
e|---------------------------------------------------------------------------|
Outro:
E|---------------------------------------------4-4-4-------------------------1-1-1|
A|--\-3-3-3--3-3-3-----------------------1-1-1-------3-3-3---------------0-0------|
D|-----------------1-1-(5)--3-3-3--1-0-0-------------------1-1---3-3-3--1---------|
G|----------------------0--------------------------------------0------------------|
B|--------------------------------------------------------------------------------|
e|--------------------------------------------------------------------------------|

E|---------------------------------------------4-4-4---------------3---------|
A|--\-3-3-3--3-3-3-----------------------1-1-1-------3-3-3-----------5---5---|
D|-----------------1-1-(5)--3-3-3--1-0-0-------------------1-1---------5-----|
G|----------------------0--------------------------------------0-------------|
B|---------------------------------------------------------------------------|
e|---------------------------------------------------------------------------|

E|---------------------------------------------------------------------------|
A|---------------------------------------------------------------------------|
D|---------------------------------------------------------------------------|
G|---------------------------------------------------------------------------|
B|---------------------------------------------------------------------------|
e|---------------------------------------------------------------------------|


************************************

| /   slide up
| \   slide down
| h   hammer-on
| p   pull-off
| ~   vibrato
| +   harmonic
| x   Mute note
| b   Bend
| pb  Pre-bend
| br  Bend release
| pbr Pre-bend release
| brb Bend release bend

************************************
Добавлено: 19.05.2016
Другие материалы по этой песне:
  • Аккорды и текст

Страница создана 19.05.2016
http://primanota.ru/the-blue-van/lonely-for-your-love-chords.htm
Привет, Гость.
Предлагаем пройти революционный курс по гитаре.
Подарок от PrimaNota.Ru, забирай!