PrimaNota.ru - самый крупный в мире бесплатный архив песенных текстов, аккордов, табулатур и нот


The Blue Van - The Beat Goes On - аккорды и текст, видео

Регистрация Запомнить меня
Войти через:  Facebook Google Twitter Vk Yandex Mail.ru

The Blue Van - The Beat Goes On - аккорды и текст, видео

Печатать
Просмотров: 97
The Beat Goes On
The Blue Van
   Intro
e----------------------------------------------------------------------
B----------------------------------------------------------------------
G-------------------------9---11---------------------------------------
D-----11---11---11---11-----------11---11---11---11---9---7------------
A---0----0----0----0------------0----0----0----0-----------------------
E---------------------------------------------------------------------- 

e----------------------------------------------------------------------
B------------------ ----10---12----------------------------------------
G-----11---11---11---11-----------11---11---11---11---9---7------------
D---0----0----0----0------------0----0----0----0-----------------------
A----------------------------------------------------------------------
E----------------------------------------------------------------------       
  
     A
I believe there is a road
                   D
I must follow no matter
         A
If it takes me to a place
                     D
that is difficult to fathom
       C#m
Just remind me there's a virute
       Bm
in accepting
      C#m
All the ways of life
                          Bm
though sometimes they are wrong

                        A
As long as the beat goes on
 D                      A
As long as the beat goes on

       A
Pour your sorrow into me
                          D
when the dark times are lurking
       A
I will always lend an ear
                                D
when you're down and nothing's working
       A
If you never get to be
                       D
who you really want to be
       A
Maybe then we're the same
                           D
Maybe then you're just like me
     C#m
Cause that's why we need to
                      Bm
help and guide each other
    C#m
Cause without a map to guide
            Bm
we don't belong
                        A
As long as the beat goes on
 D                       A
As long as the beat goes on
  D
As long as the beat goes
  F            G
on and on and on and on and on
  A
It goes
  F                 G             F                G
on and on and on and on and on and on and on and on and on
 A
Ooh woah(As long as the beat goes on)
 D
Ooh woah (As long as the beat goes on)
  A
If you never get to be
                      D
who you really want to be (As long as the beat goes on)
  A
Maybe then we're the same
                          D
Maybe then you're just like me
  A
As long as the beat goes
 F              G                 F                 F        
on and on and on and on and on and on and on and on and on.

A End
Добавлено: 06.05.2016
Другие материалы по этой песне:
  • Аккорды и текст

Страница создана 06.05.2016
http://primanota.ru/the-blue-van/beat-goes-on-chords.htm
Привет, Гость.
Предлагаем пройти революционный курс по гитаре.
Подарок от PrimaNota.Ru, забирай!