PrimaNota.ru - самый крупный в мире бесплатный архив песенных текстов, аккордов, табулатур и нот


The Blue Bloods - Twice As Strong - таба, видео

Регистрация Запомнить меня
Войти через:  Facebook Google Twitter Vk Yandex Mail.ru

The Blue Bloods - Twice As Strong - таба, видео

Печатать
Просмотров: 88
Title: Twice As Strong
Band: The Blue Bloods
Album: The Blue Bloods

This is a really blood pumping, up beat street punk/oi song.  You gotta check these guys out!

check them out at www.thebluebloods.net

~ = Ring Out
. = Palm Mute


	Intro
e|---------------------------------------|
B|--8~----8~----8~-----------------------|
G|--9~----9~----9~----8888888888888888---|
D|--9~----9~----9~----9999999999999999---|
A|--7~----7~----7~----9999999999999999---|
E|--------------------7777777777777777---|
	(Half Notes)    ................

	Verse 1
e|------------------------------------------------|
B|--888------888------888-------------------------|
G|--999-6-6--999-8-8--999-6-6—-8888888888888888---|
D|--999-7-7--999-9-9--999-7-7—-9999999999999999---|
A|--777-7-7--777-9-9--777-7-7—-9999999999999999---|
E|------5-5------7-7------5-5—-7777777777777777---|  
                               ................ 

	Chorus
e|----------------------------------------|
B|------------8888-5555-------8888--------|
G|--6666-8888-9999-6666--6666-9999-8888---|
D|--7777-9999-9999-6666--7777-9999-9999---|
A|--7777-9999-7777-4444--7777-7777-9999---|
E|--5555-7777------------5555------7777---|

	Verse 2
e|------------------------------------------------|
B|--888-8----888-8----888-8-----------------------|
G|--999-9-6--999-9-8--999-9-6—-8888888888888888---|
D|--999-9-7--999-9-9--999-9-7—-9999999999999999---|
A|--777-7-7--777-7-9--777-7-7—-9999999999999999---|
E|--------5--------7--------5—-7777777777777777---|  
                               ................

(Chorus)

(Intro)

	Verse 1
e|------------------------------------------------|
B|--888------888------888-------------------------|
G|--999-6-6--999-8-8--999-6-6—-8888888888888888---|
D|--999-7-7--999-9-9--999-7-7—-9999999999999999---|
A|--777-7-7--777-9-9--777-7-7—-9999999999999999---|
E|------5-5------7-7------5-5—-7777777777777777---|  
                               ................ 

(Chorus)

	Verse 2
e|------------------------------------------------|
B|--888-8----888-8----888-8-----------------------|
G|--999-9-6--999-9-8--999-9-6—-8888888888888888---|
D|--999-9-7--999-9-9--999-9-7—-9999999999999999---|
A|--777-7-7--777-7-9--777-7-7—-9999999999999999---|
E|--------5--------7--------5—-7777777777777777---|  
                               ................

(Chorus)

	Outro
e|--------------------|
B|--888------888------|
G|--999-8-8--999-8-8--|
D|--999-9-9--999-9-9--|
A|--777-9-9--777-9-9--|
E|------7-7------7-7--| (4x)
Добавлено: 02.07.2012
Другие материалы по этой песне:
  • Аккорды и текст

Страница создана 02.07.2012
http://primanota.ru/the-blue-bloods/twice-as-strong-chords.htm
Привет, Гость.
Предлагаем пройти революционный курс по гитаре.
Подарок от PrimaNota.Ru, забирай!