PrimaNota.ru - самый крупный в мире бесплатный архив песенных текстов, аккордов, табулатур и нот


The Blamed - Torn - таба, видео

Регистрация Запомнить меня
Войти через:  Facebook Google Twitter Vk Yandex Mail.ru

The Blamed - Torn - таба, видео

Печатать
Просмотров: 79
		   TORN
THE BLAMED
FRAIL
COPYRIGHT TOOTH AND NAIL RECORDS
TABBED BY MATT JOHNSON(Gjohn11018@aol.com)

THIS IS MY FIRST TAB SO THERE MAY BE A FEW MISTAKES.
IF YOU HAVE ANY OTHER BLAMED TABS PLEASE E-MAIL ME

Intro/Verse
-------------------------------------------------------------
-------------------------------------------------------------
-----1--1--1----------5--5--5----------1--1--1-------5--5--5-
-----2--2--2----------6--6--6----------2--2--2-------6--6--6-
---2-----------------6----------------2-------------6--------
-0-------------2/4--4-----------4/2-0----------2/4-4---------
                                                REPEAT 3X

NOW I AM TORN...
-------------------------------------------------------------
-------------------------------------------------------------
-------------------------------------------------------------
-6-6-6--7--6-6-6--7--6-6-6--7--6-6-6--7--6-6-6--7--6-6-6--7--
-6-6-6--7--6-6-6--7--6-6-6--7--6-6-6--7--6-6-6--7--6-6-6--7--
-4-4-4--5--4-4-4--5--4-4-4--5--4-4-4--5--4-4-4--5--4-4-4--5--

-------------------------------------------------------------
-------------------------------------------------------------
-----------------1-X-1-1---------5-X-5-5--------1-X-1-1------
--6-6-6--7/0-----2-X-2-2---------6-X-6-6--------2-X-2-2------
--6-6-6--7/0-----2-X-2-2---------6-X-6-6--------2-X-2-2------
--4-4-4--5/0--0-----------2/4-4--4-X-4-4--4/2-0---------2/4-4

-------------------------------------------------------------
-------------------------------------------------------------
-----5-X-5-5-------------------------------------------------
-----6-X-6-6-------------------------------------------------
-----6-X-6-6-------------------------------------------------
-----4-X-4-4-------------------------------------------------
               THEN PLAY INTRO 2X SLIGHTLY FASTER

AND IN MY OWN WEAKNESS...
-------------------------------------------------------------
-------------------------------------------------------------
-------------------------------------------------------------
---7----6--6-6-6-------7----6--6-6-6------7----6--6-6-6----7-
---7----6--6-6-6-----7---------6-6-6----7---------6-6-6----7-
-5----4----4-4-4---5------4----4-4-4--5------4-----------5---

-------------------------------------------------------------
-------------------------------------------------------------
-------------------------------------------------------------
---------6--LET----------------------------------------------
---------6--RING---------------------------------------------
---4---4-----------------------------------------------------

MY PICTURE IS TORN...
-------------------------------------------------------------
-------------------------------------------------------------
-------------------------------------------------------------
-6--9--8--7-      -6--6----12-12-12-12-12-11-11-11-11--9-  
-6--9--8--7-  8X  -6--6----12-12-12-12-12-11-11-11-11--7- 4X
-4--7--6--5-      -4--4----10-10-10-10-10--9--9--9--9--7-  
                        PLAY THIS RIFF 2X
                                A HEART SOUGHT AFTER...
-------------------------------------------------------------
-------------------------------------------------------------
---1-X-1--1---------5-X-5--5-  ------1-1-1------------5-5-5--
---2-X-2--2---------6-X-6--6-2X------2-2-2------------6-6-6--
---2-X-2--2---------6-X-6--6-  ----2-2-2-2----------6--------     
-0-----------2/4--4-4-X-4--4-  --0----------2/4--4-----------

-------------------------------------------------------------
-------------------------------------------------------------
---------1-1-1-----------5-5-5-----------1-1-1--------5-5-5--
---------2-2-2-----------6-6-6-----------2-2-2--------6-6-6--
-------2-2-2-2---------6---------------2------------6--------
-4/2-0----------2/4--4----------4/2--0---------2/4-4---------

-------------------------------------------------------------
-------------------------------------------------------------
----------1-1-1----------5-5-5----------1--------------------
----------2-2-2----------6-6-6----------2-- LET RING---------
--------2--------------6----------------2--------------------
--4/2-0----------2/4-4------------4/2---0--------------------

ONE, TWO, THREE, FOUR  BE MY FRIEND
-------------------------------------------------------------
-------------------------------------------------------------
-------------------------------------------------------------
-6--6--6---12-12-12-12-12-12---13-13-13--12-12---12-12-12-12-
-6--6--6---12-12-12-12-12-12---13-13-13--12-12---12-12-12-12-
-4--4--4---10-10-10-10-10-10---11-11-11--10-10---10-10-10-10-
                     PLAY THIS RIFF 6X

-------------------------------------------------------------
-------------------------------------------------------------
------1--X----1----------------------------------------------
------2--X----2----------------------------------------------
------2--X----2- LET RING -----------------------------------
------0--X----0----------------------------------------------


THAT'S PRETTY MUCH IT.  THE BLAMED IS ONE OF THE BEST BAND I HAVE EVER HEARD
I SAW THEM IN CONCERT AND IT REALLY BLESSED ME  PLEASE SEND ME ANY
CORRECTIONS.  Gjohn11018@aol.com
     
Добавлено: 15.08.2013
Другие материалы по этой песне:
  • Аккорды и текст

Страница создана 15.08.2013
http://primanota.ru/the-blamed/torn-chords.htm
Привет, Гость.
Предлагаем пройти революционный курс по гитаре.
Подарок от PrimaNota.Ru, забирай!