PrimaNota.ru - самый крупный в мире бесплатный архив песенных текстов, аккордов, табулатур и нот


The Blamed - God Have Mercy - таба, видео

Регистрация Запомнить меня
Войти через:  Facebook Google Twitter Vk Yandex Mail.ru

The Blamed - God Have Mercy - таба, видео

Печатать
Просмотров: 68
		   GOD HAVE MERCY
THE BLAMED
ALBUM:  again...
WRITTEN BY THE BLAMED
Copyright 1998 Grrr Records
TABBED BY MATT JOHNSON

=============================================================
THIS SONG IS VERY EASY TO PLAY IF YOU JUST
LISTEN TO THE RHYTHM OF IT.

================INTRO: 2X=================
------------------------------------------
------------------------------------------
-55-555-5------------77-777-7--88-888-8---
-55-555-5--55-555-5--77-777-7--88-888-8---
-33-333-3--55-555-5--55-555-5--66-666-6---
-----------33-333-3-----------------------
==========================================
THIS PART IS PLAYED WHEN THE VERSE BEGINS
=================RIFF 2:==================

A gradual destruction of myself...........
------------------------------------------
------------------------------------------
-55-5--------77-7--88-8--55-5--------88888
-55-5--55-5--77-7--88-8--55-5--55-5--88888 =MANY TIMES=
-33-3--55-5--55-5--66-6--33-3--55-5--66666
-------33-3--------------------33-3-------
==========================================
WHEN THE LAST WORD OF THE VERSE IS SAID THIS
PART IS PLAYED
=================RIFF 3:==================           
When the demons come....
------------------------------------------
------------------------------------------
------------------7-----------------------
-55-5--77-7--88-8-7-8--------------------- =MANY TIMES=
-55-5--77-7--88-8-5-8---------------------
-33-3--55-5--66-6---6---------------------
==========================================
THIS IS THE SOLO PART PLAYED AT THE VERY
OF THE END OF THE SONG
===================SOLO===================
------------------------------------------
------------------------------------------
-888-8/9-8-9-11--------------------------- =MANY TIMES=
-888-8/9-8-9-11---------------------------
-666-6/7-6-7-9----------------------------
------------------------------------------
==========================================

THE BLAMED IS THE BEST CHRISTIAN OR SECULAR
HARDCORE BAND  IF ANYONE HAS CORRECTIONS,
SUGGESTIONS, OR OTHER TABS BY THE BLAMED YOU
CAN EMAIL ME AT Gjohn11018@aol.com.
========================================== 
     
Добавлено: 06.07.2013
Другие материалы по этой песне:
  • Аккорды и текст

Страница создана 06.07.2013
http://primanota.ru/the-blamed/god-have-mercy-chords.htm
Привет, Гость.
Предлагаем пройти революционный курс по гитаре.
Подарок от PrimaNota.Ru, забирай!