PrimaNota.ru - самый крупный в мире бесплатный архив песенных текстов, аккордов, табулатур и нот


The Blacksmith Experience - My Lobster - таба, видео

Регистрация Запомнить меня
Войти через:  Facebook Google Twitter Vk Yandex Mail.ru

The Blacksmith Experience - My Lobster - таба, видео

Печатать
Просмотров: 114
-----------------------------------------------------------------------------
                   MY LOBSTER - The Blacksmith Experience
-----------------------------------------------------------------------------

Tabbed by: Michael Sveten
Email: Smikeb04@yahoo.com
Website: http://www.myspace.com/smblacksmith
Label: Indy Revo Records
Tuning: Standard


Intro

e|--------------------------------------------------------------------------|
B|---3----1-----0------3----1-----0------3----1-----0------3----1-----------|
G|--2-2--2-2---0-0-0--2-2--2-2---0-0-0--2-2--2-2---0-0-0--2-2--2-2----------|
D|-0----2-----0---0--0----2-----0---0--0----2-----0---0--0----2-------------|
A|--------------------------------------------------------------------------|
E|-----------3-----------------3-----------------3--------------------------|

Verse (As I walk this shallow beach...)

e|-3-33333------2-22222-------------------3-33333---------------------------|
B|--------------3-33333------1-11111----------------------------------------|
G|--------------2-22222------2-22222----------------------------------------|
D|---------------------------2-22222----------------------------------------|
A|-2-22222--------------------------------2-22222---------------------------|
E|-3-33333--------------------------------3-33333---------------------------|

Chorus (Will I ever find you there...) 

e|-2x------------------------3-33333--------------------------------------|
B|-3x--1x--3333333--1-11111-----------------------------------------------|
G|-2x--2x--4444444--0-00000-----------------------------------------------|X2
D|-----2x--4444444--2-00000-----------------------------------------------|
A|---------2222222--3-33333--2-22222--------------------------------------|
E|---------------------------3-33333--------------------------------------|

(Will you be my lobster...)

e|-------------3-333-333--------------------------------------------------|
B|-1-11-------------------------------------------------------------------|
G|-0-00--1-11-------------------------------------------------------------|X4
D|-2-22--2-22-------------------------------------------------------------|
A|-3-33--2-22--2-222-222--------------------------------------------------|
E|-------------3-333-333--------------------------------------------------|

Outro

e|-2x------------------------3-33333--2x-------------------------3~~-------|
B|-3x--1x--3333333--1-11111-----------3x--1x---3333333--1-11111------------|
G|-2x--2x--4444444--0-00000-----------2x--2x---4444444--0-00000------------|
D|-----2x--4444444--2-00000---------------2x---3333333--2-22222------------|
A|---------2222222--3-33333--2-22222-----------2222222--3-33333--2~~-------|
E|---------------------------3-33333-----------------------------3~~-------|

************************************
Добавлено: 12.06.2012
Другие материалы по этой песне:
  • Аккорды и текст

Страница создана 12.06.2012
http://primanota.ru/the-blacksmith-experience/my-lobster-chords.htm
Привет, Гость.
Предлагаем пройти революционный курс по гитаре.
Подарок от PrimaNota.Ru, забирай!