PrimaNota.ru - самый крупный в мире бесплатный архив песенных текстов, аккордов, табулатур и нот


The Blacksmith Experience - Hawaii - таба, видео

Регистрация Запомнить меня
Войти через:  Facebook Google Twitter Vk Yandex Mail.ru

The Blacksmith Experience - Hawaii - таба, видео

Печатать
Просмотров: 93
-----------------------------------------------------------------------------
                     Hawaii – The Blacksmith Experience
-----------------------------------------------------------------------------

Tabbed by: Michael Sveten
Email: Smikeb04@yahoo.com

Tuning:Standard
Capo (5)

Intro

e|--------------------8-88-888-888-8-6-------------------------------------|
B|--6-66-666-666-666--------------------6-66-666-666-666--6-66-666-666-666-|
G|--------------------------------------7-77-777-777-777-------------------|
D|--7-77-777-777-777--------------------8-88-888-888-888--7-77-777-777-777-|
A|--8-88-888-888-888--7-77-777-777-7-7--------------------8-88-888-888-888-|
E|--------------------8-88-888-888-8-8-------------------------------------|

e|--6-66-666-666-666--8-88-xx----------------------------------------------|
B|--6-66-666-666-666--6-66-xx----------------------------------------------|
G|--7-77-777-777-777--7-77-xx----------------------------------------------|
D|--8-88-888-888-888--8-88-xx----------------------------------------------|
A|-------------------------------------------------------------------------|
E|-------------------------------------------------------------------------|

Verse
   d du udu udu udu
e|--------------------8-88-888-888-8-6-------------------------------------|
B|--6-66-666-666-666--------------------6-66-666-666-666--6-66-666-666-666-|
G|--------------------------------------7-77-777-777-777-------------------|
D|--7-77-777-777-777--------------------8-88-888-888-888--7-77-777-777-777-|
A|--8-88-888-888-888--7-77-777-777-7-7--------------------8-88-888-888-888-|
E|-------------------------------------------------------------------------|

e|--8-88-888-888-8-6--------------------------------------8-88-888-888-888-|
B|--8-88-888-888-8-8--6-66-666-666-666--6-66-666-666-666-------------------|
G|--------------------7-77-777-777-777-------------------------------------|*
D|--------------------8-88-888-888-888--7-77-777-777-777-------------------|*
A|--------------------------------------8-88-888-888-888--7-77-777-777-777-|
E|-------------------------------------------------------------------------|

Lead In
e|--6-66-666-666-666--------------------6-66-666-666-666--8--8-88------------|
B|--6-66-666-666-666--6-66-666-666-666--6-66-666-666-666--6--6-66------------|
G|--7-77-777-777-777--------------------7-77-777-777-777--7--6-66------------|
D|--8-88-888-888-888--7-77-777-777-777--8-88-888-888-888--8--8-88------------|
A|--------------------8-88-888-888-888---------------------------------------|
E|---------------------------------------------------------------------------|

Chorus
e|--------------------8-88-888-888-886--------------------8-88-888-888-886-|
B|--6-66-666-666-666--------------------6-66-666-666-666-------------------|
G|-------------------------------------------------------------------------|
D|--7-77-777-777-777--------------------7-77-777-777-777-------------------|
A|--8-88-888-888-888--7-77-777-777-777--8-88-888-888-888--7-77-777-777-777-|
E|--------------------8-88-888-888-888--------------------8-88-888-888-888-|

e|--6-66-666-666-666--8-88-888-888-888--------------------6-6-66-----------|
B|--6-66-666-666-666--------------------6-66-666-666-666--6-6-66-----------|
G|--7-77-777-777-777--------------------------------------7-7-77-----------|
D|--8-88-888-888-888--------------------7-77-777-777-777--8-8-88-----------|
A|--------------------7-77-777-777-777--8-88-888-888-888-------------------|
E|--------------------8-88-888-888-888-------------------------------------|

Verse Two
   d du udu udu udu
e|--------------------8-88-888-888-8-6-------------------------------------|
B|--6-66-666-666-666--------------------6-66-666-666-666--6-66-666-666-666-|
G|--------------------------------------7-77-777-777-777-------------------|
D|--7-77-777-777-777--------------------8-88-888-888-888--7-77-777-777-777-|
A|--8-88-888-888-888--7-77-777-777-7-7--------------------8-88-888-888-888-|
E|-------------------------------------------------------------------------|

e|--8-88-888-888-8-6--------------------------------------8-88-888-888-888-|
B|--8-88-888-888-8-8--6-66-666-666-666--6-66-666-666-666-------------------|
G|--------------------7-77-777-777-777-------------------------------------|*
D|--------------------8-88-888-888-888--7-77-777-777-777-------------------|*
A|--------------------------------------8-88-888-888-888--7-77-777-777-777-|
E|-------------------------------------------------------------------------|

Lead In
e|--6-66-666-666-666--------------------6-66-666-666-666--8--8-88------------|
B|--6-66-666-666-666--6-66-666-666-666--6-66-666-666-666--6--6-66------------|
G|--7-77-777-777-777--------------------7-77-777-777-777--7--6-66------------|
D|--8-88-888-888-888--7-77-777-777-777--8-88-888-888-888--8--8-88------------|
A|--------------------8-88-888-888-888---------------------------------------|
E|---------------------------------------------------------------------------|

Chorus
e|--------------------8-88-888-888-886--------------------8-88-888-888-886-|
B|--6-66-666-666-666--------------------6-66-666-666-666-------------------|
G|-------------------------------------------------------------------------|
D|--7-77-777-777-777--------------------7-77-777-777-777-------------------|
A|--8-88-888-888-888--7-77-777-777-777--8-88-888-888-888--7-77-777-777-777-|
E|--------------------8-88-888-888-888--------------------8-88-888-888-888-|

e|--6-66-666-666-666--8-88-888-888-888--------------------6-6-66-----------|
B|--6-66-666-666-666--------------------6-66-666-666-666--6-6-66-----------|
G|--7-77-777-777-777--------------------------------------7-7-77-----------|
D|--8-88-888-888-888--------------------7-77-777-777-777--8-8-88-----------|
A|--------------------7-77-777-777-777--8-88-888-888-888-------------------|
E|--------------------8-88-888-888-888-------------------------------------|

Interlude Two
e|----5------5-------8------8-------6------6-------5------8----------------|
B|---6-6-6--6-6-6---5-5-5-5--5-5---6-6-6--6-6-6---6-6-6--5-5-5-------------|
G|------5------5-------5---5--5-------7------7-------5------5--------------|*
D|---------7-------5--------------8-----8----------------------------------|*
A|--8--------------7-----------------------------8------5------------------|
E|-----------------8-------------------------------------------------------|

Chorus
e|--------------------8-88-888-888-886--------------------8-88-888-888-886-|
B|--6-66-666-666-666--------------------6-66-666-666-666-------------------|
G|-------------------------------------------------------------------------|
D|--7-77-777-777-777--------------------7-77-777-777-777-------------------|
A|--8-88-888-888-888--7-77-777-777-777--8-88-888-888-888--7-77-777-777-777-|
E|--------------------8-88-888-888-888--------------------8-88-888-888-888-|
                                                          Outro
e|--6-66-666-666-666--8-88-888-888-888--------------------6-6-66-6---------|
B|--6-66-666-666-666--------------------6-66-666-666-666--6-6-66-6---------|
G|--7-77-777-777-777--------------------------------------7-7-77-7---------|
D|--8-88-888-888-888--------------------7-77-777-777-777--8-8-88-8---------|
A|--------------------7-77-777-777-777--8-88-888-888-888-------------------|
E|--------------------8-88-888-888-888-------------------------------------|

LYRICS
(Verse)

I'm Sick of this small city life
Where everyone seems dead inside
We were meant for something better
Somewhere along the beach
Just us beside the sea

I've been dreaming 'bout the waves again
Crashing loudly deep inside my head
We can listen to the wind blow 'round
Loving each and every sound
As we lay amongst the breeze


(Lead In)

Cause when it comes to me and you
I know one thing that rings true

(Chorus)

Well I-I-I-I
Wanna be in Ha-Hawaii-i-i-i
Just you and me and the sun hanging overhead
The sound of waves heard from our bed and well
Well I-I-I-I
Wanna be in Hawaii

(Verse)

I was thinking just the other day
How I'd like for you to marry me
We can kiss under the sunshine
Say “I do” over the sea
Then my life would be complete

Take my hand and we can leave today
To a place that felt so far away
We can sing your favorite Isreal songs
Eat Musubi all night long
And I'll never worry about yesterday
All our troubles seem so far away

(Lead In)

Cause when it comes to me and you
I know one thing that rings true

(Chorus)

Well I-I-I-I
Wanna be in Ha-Hawaii-i-i-i
Just you and me and the sun hanging overhead
The sound of waves heard from our bed and well
Well I-I-I-I
Wanna be in Hawaii

(Solo)

(Chorus)

Well I-I-I-I
Wanna be in Ha-Hawaii-i-i-i
Just you and me and the sun hanging overhead
The sound of waves heard from our bed and well
Well I-I-I-I
Wanna be in Hawaii-i-i-i
Just you and me and the sun hanging overhead
The sound of waves heard from our bed and well
Well I-I-I-I
Wanna be in Hawaii
Добавлено: 09.07.2012
Другие материалы по этой песне:
  • Аккорды и текст

Страница создана 09.07.2012
http://primanota.ru/the-blacksmith-experience/hawaii-chords.htm
Привет, Гость.
Предлагаем пройти революционный курс по гитаре.
Подарок от PrimaNota.Ru, забирай!