PrimaNota.ru - самый крупный в мире бесплатный архив песенных текстов, аккордов, табулатур и нот


The Blackout - Were Going To Hell So Bring The Sunblock - таба, бас-таба, видео

Регистрация Запомнить меня
Войти через:  Facebook Google Twitter Vk Yandex Mail.ru

The Blackout - Were Going To Hell So Bring The Sunblock - таба, бас-таба, видео

Печатать
Просмотров: 145
-------------------------------------------------------------------------------
                             We're going to hell, so bring the sunblock - The Blackout
-------------------------------------------------------------------------------
Tabbed by: Cory Humphreys

Tuning:C# G# C# F# A# D#
PM      x      xx       x
|-------------------------------------------|
|-------------------------------------------|
|---5/7------------5/7----------------------|
|---x------0-------x--------3--3------------|
|---3/5-0--0---00--3/5--0---3--3------------|   X3
|-------0--0---00-------0---3--3------------|

After playing it the first time, add another palm muted 0 at the end of each riff
                                                        0


Play this aafter playing that three times....

PM      x      xx        x
|-------------------------------------------|
|-------------------------------------------|
|---5/7-------------------------------------|
|---x------0-----------------3--3-----------|
|---3/5-0--0---00---3h5--0---3--3-----------|
|-------0--0---00---3h5--0---3--3-----------|

Repeate untill verse


************************************

| /   slide up
| \   slide down
| h   hammer-on
| p   pull-off
| ~   vibrato
| +   harmonic
| x   Mute note
| b   Bend
| pb  Pre-bend
| br  Bend release
| pbr Pre-bend release
| brb Bend release bend

************************************
Добавлено: 06.05.2012
Другие материалы по этой песне:
  • Аккорды и текст

Страница создана 06.05.2012
http://primanota.ru/the-blackout/were-going-to-hell-so-bring-the-sunblock-chords.htm
Привет, Гость.
Предлагаем пройти революционный курс по гитаре.
Подарок от PrimaNota.Ru, забирай!