PrimaNota.ru - самый крупный в мире бесплатный архив песенных текстов, аккордов, табулатур и нот


The Blackout - We Live On - бас-таба, видео

Регистрация Запомнить меня
Войти через:  Facebook Google Twitter Vk Yandex Mail.ru

The Blackout - We Live On - бас-таба, видео

Печатать
Просмотров: 103
Уроки эстрадного вокала в Санкт-Петербурге
Intro
G|-------------------------------------------|
D|-------------------------------------------|
A|-------------------------------------------|
D|-4~--------4444444444444444444444444444444-|x1

G|------------------------------------|------------------------------------|
D|------------------------------------|------------------------------------|
A|-----------00-0-0--------------22-2-|-----------00-0-0-------------------|
D|-4-4-44--------------2-2-22---------|-4-4-44--------------2-2-22----44-4-|X1

Verse (Turn Treble Up)
G|----------------------------------|
D|----------------------------------|
A|-----------------00-000-0---------|
D|-44-444-444-444-4--------22-222-2-|x4

Pre-Chorus
G|-----------------------------------|--------------------------|
D|-----------------------------------|--------------------------|
A|-----------------------------------|--------------------------|
D|-0000000022222222-4444444444444444-|-00000000-22222222/(11X8)-|x1

Chorus
G|-------------------------------------|-----------------------------------------------|
D|-------------------------------------|-----------------------------------------------|
A|-----------00-0-0--------------22-2--|-----------00-0-0------------------------------|
D|-4-4-44--------------2-2-22----------|-4-4-44--------------2-2-22----44-4\-24x----4x-|x1

***Verse***

***Pre-Chorus***

Chorus 2
G|-------------------------------------|------------------------------------|
D|-------------------------------------|------------------------------------|
A|-----------00-0-0--------------22-2--|-----------00-0-0-------------------|
D|-4-4-44--------------2-2-22----------|-4-4-44--------------2-2-22----44-4-|x1

G|-------------------------------------|-----------------------------------------|
D|-------------------------------------|-----------------------------------------|
A|-----------00-0-0--------------22-2--|-----------00-0-0------------------------|
D|-4-4-44--------------2-2-22----------|-4-4-44--------------2-2-22----44-4\-24~-|x1

Bridge
G|-------------------------------------------------------------------|
D|-------------------------------------------------------------------|
A|-------------------------------------------------------------------|
D|-44444444444444444444444444444444444444444444444444444444444444444-|x1

Breakdown (2:23)
G|-------------------|-------------------|-------------------|----------------------|
D|-------------------|-------------------|-------------------|----------------------|
A|-------------------|-------------------|-------------------|----------------------|
D|-044-044-04-044422-|-044-044-04-044422-|-044-044-04-044422-|-044-044-04-044422-/4-|x1

Final Chorus
G|-------------------------------------|-----|
D|-------------------------------------|-----|
A|-----------00-0-0--------------22-2--|-----|
D|-4-4-44--------------2-2-22----------|-10\-|

G|-------------------------------------|------------------------------------|
D|-------------------------------------|------------------------------------|
A|-----------00-0-0--------------22-2--|-----------00-0-0-------------------|
D|-4-4-44--------------2-2-22----------|-4-4-44--------------2-2-22----44-4-|x1

G|-------------------------------------|-------------------------------------|
D|-------------------------------------|-------------------------------------|
A|-----------00-0-0--------------22-2--|-----------00-0-0--------------------|
D|-4-4-44--------------2-2-22----------|-4-4-44--------------2-2-22----44-4\-|x1

***Breakdown***




Tabbed By Jack Mills
Добавлено: 23.02.2014
Другие материалы по этой песне:
  • Аккорды и текст

Страница создана 23.02.2014
http://primanota.ru/the-blackout/we-live-on-chords.htm
Привет, Гость.
Предлагаем пройти революционный курс по гитаре.
Подарок от PrimaNota.Ru, забирай!