PrimaNota.ru - самый крупный в мире бесплатный архив песенных текстов, аккордов, табулатур и нот


The Blackout - Ive Got Better Things To Do Tonight Than Die - таба, видео

Регистрация Запомнить меня
Войти через:  Facebook Google Twitter Vk Yandex Mail.ru

The Blackout - Ive Got Better Things To Do Tonight Than Die - таба, видео

Печатать
Просмотров: 119
This is just something i cam up with, and i dont think its too bad for my first tab :)
Hope it helps!

Please note, it says intro, but its the whole song

Intro
Gtr 1
|------------------------------------------------|
|------------------------------------------------|
|------989898------------------------------------|
|--77x-989898-77x777777-44x444444-77x77-99x-99x--|
|--77x-767676-77x777777-44x444444-77x77-99x-99x--|
|--77x--------77x777777-44x444444-77x77-99x-99x--|played through verse aswell

Verse
Gtr 2
|---------------------------------|
|---------------------------------|
|----9-8-----9-8-----9-8-----9-8--|
|--9-------7-------6-------9------|
|---------------------------------|
|---------------------------------|played through verse

Bridge
|-------------------------------------------|
|-------------------------------------------|
|-------------------------------------------|
|--9-11-11--9-11-11--9-11-11--9-11-9-7-7-4--|
|--9-11-11--9-11-11--9-11-11--9-11-9-7-7-4--|
|--9-11-11--9-11-11--9-11-11--9-11-9-7-7-4--|x2

Chorus
|-------------------------------------------------------------------------|
|-------------------------------------------------------------------------|
|-------------------------------------------------------------------------|
|--666666-666-6\8--444444-444-4\6--0000000000000000--444444444--66666666--|
|--444444-444-4\6--222222-222-2\4--2222222222222222--444444444--66666666--|
|----------------------------------------------------444444444--66666666--| x2

|--------------------------|
|--------------------------|
|--------------------------|
|--------------------------|
|--------------------------|
|--0-7-9-0-7-9-7-9h11-7h9--|x4

|-------------------------------------------------|
|-------------------------------------------------|
|-------------------------------------------------|
|-------------------------------------------------|
|--------------------------------------------7h9--|
|--0-7-9-0-7-9-7-9h11-7h9--0-7-9-0-7-9-7-9h11-----|x4

|--------------------------------------------------|
|------------------------------12-10----------9-7--|
|-------9-8------10--------------------------------|
|---9-11-----9-11--11----11-13----------11-13------|
|--9--------9----------11-------------11-----------|
|--------------------------------------------------|

Chorus
|-------------------------------------------------------------------------|
|-------------------------------------------------------------------------|
|-------------------------------------------------------------------------|
|--666666-666-6\8--444444-444-4\6--0000000000000000--444444444--66666666--|
|--444444-444-4\6--222222-222-2\4--2222222222222222--444444444--66666666--|
|----------------------------------------------------444444444--66666666--| 
x2

|-----------------------------------------------------|
|-----------------------------------------------------|
|-----------------------------------------------------|
|--6-----6\8--4-----4\6--0-------444444444--66666666--|
|--4(x16)4\6--2(x16)2\4--2(x16)--444444444--66666666--|
|--------------------------------444444444--66666666--|x2 

In background of the last chorus's
|--------------|
|--------------|
|--------------|
|--00-7--00-9--|
|--00-7--00-9--|
|--00-7--00-9--|x2 (one each chorus)

|---------------------|
|---------------------|
|-----98989-----------|
|--77x98989-999-11/0--|
|--77x76767-999-11/0--|
|--77x------999-11/0--|

Please rate/comment/STUFF this tab :)
Добавлено: 06.04.2012
Другие материалы по этой песне:
  • Аккорды и текст

Страница создана 06.04.2012
http://primanota.ru/the-blackout/ive-got-better-things-to-do-tonight-than-die-chords.htm
Привет, Гость.
Предлагаем пройти революционный курс по гитаре.
Подарок от PrimaNota.Ru, забирай!