PrimaNota.ru - самый крупный в мире бесплатный архив песенных текстов, аккордов, табулатур и нот


The Black Ryder - Sweet Come Down - таба, видео

Регистрация Запомнить меня
Войти через:  Facebook Google Twitter Vk Yandex Mail.ru

The Black Ryder - Sweet Come Down - таба, видео

Печатать
Просмотров: 255
Уроки эстрадного вокала в Санкт-Петербурге
-------------------------------------------------------------------------------
                             Sweet Come Down - The Black Ryder
-------------------------------------------------------------------------------
Website: http://www.theantimachinemachine.com/
Myspace: http://www.myspace.com/theblackryder

Chords:

Verse: Em, Dm, G, Am
Chorus: Am, G, F, Am
Outro: Em, Am, Em, Am


e|--------------|------1---------1---|-------1----------------|-----------------|----------------|
B|--------------|------3---------3---|-------3----------------|-----------1-----|--1--------1----|
G|-------0------|------2---------2---|-------2---------0------|-----------2-----|--2--------2----|
D|-0-2-------2--|--0-----------------|--0---------0-----------|--0--------2-----|--2--------2----|
A|--------------|-----------0--------|----------------------0-|-----0-----------|-------0--------|
E|--------------|--------------------|------------------------|---------------0-|---------------0|

e|-------------3--|----------1--|---------------|----------------|-------------|-------------|
B|--1----------0--|----------1--|--------1------|-1--------------|--------1----|--1----------|
G|--2----------0--|----------2--|--------2------|-2---------0----|--------2----|--2----------|
D|--2----------0--|----------3--|--------2------|-2------2-------|--2-----2----|--2----------|
A|----------2-----|-------3-----|-3--0----------|-----0----------|-----0-------|------0------|
E|-------3--------|-3--1--------|-------------0-|----------------|-----------0-|-------------|
Добавлено: 19.05.2012
Другие материалы по этой песне:
  • Аккорды и текст

Страница создана 19.05.2012
http://primanota.ru/the-black-ryder/sweet-come-down-chords.htm
Привет, Гость.
Предлагаем пройти революционный курс по гитаре.
Подарок от PrimaNota.Ru, забирай!