PrimaNota.ru - самый крупный в мире бесплатный архив песенных текстов, аккордов, табулатур и нот


The Black Rabbits - All Alone Again - таба, видео

Регистрация Запомнить меня
Войти через:  Facebook Google Twitter Vk Yandex Mail.ru

The Black Rabbits - All Alone Again - таба, видео

Печатать
Просмотров: 82
Song: "All Alone Again"
Band: The Black Rabbits
Album: Hypno Switch (2011)

Tuning: Standard

x = Mute Note

INTRO:
Guitar (Palm muted):
e|--------------|--------------|--------------|--------------|
B|--------------|--------------|--------------|--------------|
G|--10--10------|--10--10--10--|--10--10--10--|--10--10--10--|
D|--11--11------|--11--11--11--|--11--11--11--|--11--11--11--|
A|--11--11------|--11--11--11--|--11--11--11--|--11--11--11--|
E|--9---9-------|--9---9---9---|--9---9---9---|--9---9---9---|

"Whooo!!"

INTRO (Open guitar):
e|--------------|--------------|--------------|--------------|
B|--------------|--------------|--------------|--------------|
G|--10--10--x---|--10--10--10--|--10--10--10--|--10--10--10--|
D|--11--11--x---|--11--11--11--|--11--11--11--|--11--11--11--|
A|--11--11--x---|--11--11--11--|--11--11--11--|--11--11--11--|
E|--9---9---x---|--9---9---9---|--9---9---9---|--9---9---9---|

e|--------------|--------------|--------------|--------------|
B|--------------|--------------|--------------|--------------|
G|--10--10--10--|--10--10--10--|--10--10--10--|--10--10--10--|
D|--11--11--11--|--11--11--11--|--11--11--11--|--11--11--11--|
A|--11--11--11--|--11--11--11--|--11--11--11--|--11--11--11--|
E|--9---9---9---|--9---9---9---|--9---9---9---|--9---9---9---|


VERSE (Open guitar):
e|--------------|--------------|--------------|--------------|
B|--------------|--------------|--------------|--------------|
G|--10--10--x---|--10--10--10--|--10--10--10--|--10--10--10--|
D|--11--11--x---|--11--11--11--|--11--11--11--|--11--11--11--|
A|--11--11--x---|--11--11--11--|--11--11--11--|--11--11--11--|
E|--9---9---x---|--9---9---9---|--9---9---9---|--9---9---9---|

"I don't wanna be anybody's fool..."

e|--------------|--------------|--------------|--------------|
B|--------------|--------------|--------------|--------------|
G|--10--10--10--|--10--10--10--|--10--10--10--|--10--10--10--|
D|--11--11--11--|--11--11--11--|--11--11--11--|--11--11--11--|
A|--11--11--11--|--11--11--11--|--11--11--11--|--11--11--11--|
E|--9---9---9---|--9---9---9---|--9---9---9---|--9---9---9---|

"I don't wanna be anybody's fool,
Oh oh!"

e|--------------|--------------|--------------|--------------|
B|--11--11--x---|--11--11--11--|--11--11--11--|--11--11--11--|
G|--11--11--x---|--11--11--11--|--11--11--11--|--11--11--11--|
D|--11--11--x---|--11--11--11--|--11--11--11--|--11--11--11--|
A|--9---9---x---|--9---9---9---|--9---9---9---|--9---9---9---|
E|--9---9---x---|--9---9---9---|--9---9---9---|--9---9---9---|

"Oh oh!"

e|--------------|--------------|--------------|--------------|
B|--------------|--------------|--------------|--------------|
G|--10--10--x---|--10--10--10--|--10--10--10--|--10--10--10--|
D|--11--11--x---|--11--11--11--|--11--11--11--|--11--11--11--|
A|--11--11--x---|--11--11--11--|--11--11--11--|--11--11--11--|
E|--9---9---x---|--9---9---9---|--9---9---9---|--9---9---9---|

e|--------------|--------------|--------------|--------------|
B|--------------|--------------|--------------|--------------|
G|--10--10--10--|--10--10--10--|--10--10--10--|--10--10--10--|
D|--11--11--11--|--11--11--11--|--11--11--11--|--11--11--11--|
A|--11--11--11--|--11--11--11--|--11--11--11--|--11--11--11--|
E|--9---9---9---|--9---9---9---|--9---9---9---|--9---9---9---|

"So I hear you think that you're pretty cool..."

e|--------------|--------------|--------------|--------------|
B|--------------|--------------|--------------|--------------|
G|--10--10--10--|--10--10--10--|--10--10--10--|--10--10--10--|
D|--11--11--11--|--11--11--11--|--11--11--11--|--11--11--11--|
A|--11--11--11--|--11--11--11--|--11--11--11--|--11--11--11--|
E|--9---9---9---|--9---9---9---|--9---9---9---|--9---9---9---|

"So I hear you think that you're pretty cool,
Oh oh!"

e|--------------|--------------|--------------|--------------|
B|--11--11--x---|--11--11--11--|--11--11--11--|--11--11--11--|
G|--11--11--x---|--11--11--11--|--11--11--11--|--11--11--11--|
D|--11--11--x---|--11--11--11--|--11--11--11--|--11--11--11--|
A|--9---9---x---|--9---9---9---|--9---9---9---|--9---9---9---|
E|--9---9---x---|--9---9---9---|--9---9---9---|--9---9---9---|

"Oh oh!"

e|--------------|--------------|--------------|--------------|
B|--------------|--------------|--------------|--------------|
G|--10--10--x---|--10--10--10--|--10--10--10--|--10--10--10--|
D|--11--11--x---|--11--11--11--|--11--11--11--|--11--11--11--|
A|--11--11--x---|--11--11--11--|--11--11--11--|--11--11--11--|
E|--9---9---x---|--9---9---9---|--9---9---9---|--9---9---9---|

"Well..."

Chorus (Open Guitar):
e|------------|------------|------------|------------|
B|--13--13----|--13--13----|-----x------|--13--13----|
G|--13--13----|--13--13----|-----x------|--13--13----|
D|--13—-13----|--13--13----|-----x------|--13--13----|
A|--11--11----|--11--11----|-----x------|--11--11----|
E|--11--11----|--11--11----|-----x------|--11--11----|

"You're all alone..."

e|------------|------------|------------|------------|
B|--11--11----|--11--11----|-----x------|--11--11----|
G|--11--11----|--11--11----|-----x------|--11--11----|
D|--11--11----|--11--11----|-----x------|--11--11----|
A|--9---9-----|--9---9-----|-----x------|--9---9-----|
E|--9---9-----|--9---9-----|-----x------|--9---9-----|

"You're all alone again."

e|--------------|--------------|--------------|--------------|
B|--------------|--------------|--------------|--------------|
G|--10--10--x---|--10--10--10--|--10--10--10--|--10--10--10--|
D|--11--11--x---|--11--11--11--|--11--11--11--|--11--11--11--|
A|--11--11--x---|--11--11--11--|--11--11--11--|--11--11--11--|
E|--9---9---x---|--9---9---9---|--9---9---9---|--9---9---9---|

"Yeah..."

e|------------|------------|------------|------------|
B|--13--13----|--13--13----|-----x------|--13--13----|
G|--13--13----|--13--13----|-----x------|--13--13----|
D|--13--13----|--13--13----|-----x------|--13--13----|
A|--11--11----|--11--11----|-----x------|--11--11----|
E|--11--11----|--11--11----|-----x------|--11--11----|

"You're all alone..."

e|------------|------------|------------|------------|
B|--11--11----|--11--11----|-----x------|--11--11----|
G|--11--11----|--11--11----|-----x------|--11--11----|
D|--11--11----|--11--11----|-----x------|--11--11----|
A|--9---9-----|--9---9-----|-----x------|--9---9-----|
E|--9---9-----|--9---9-----|-----x------|--9---9-----|

"You're all alone again."

Continues:
INTRO (Open Guitar).
VERSE (Open Guitar).
CHORUS (Open Guitar).

BRIDGE (Open Guitar):

e|--------------|--------------|--------------|--------------|
B|--11--11--x---|--11--11--11--|--11--11--11--|--11--11--11--|
G|--11--11--x---|--11--11--11--|--11--11--11--|--11--11--11--|
D|--11--11--x---|--11--11--11--|--11--11--11--|--11--11--11--|
A|--9---9---x---|--9---9---9---|--9---9---9---|--9---9---9---|
E|--9---9---x---|--9---9---9---|--9---9---9---|--9---9---9---|
                                                                    (x4)
e|--------------|--------------|--------------|--------------|
B|--------------|--------------|--13--13---x--|--13--13--13--|
G|--10--10--x---|--10--10--10--|--13--13---x--|--13--13--13--|
D|--11--11--x---|--11--11--11--|--13--13---x--|--13--13--13--|
A|--11--11--x---|--11--11--11--|--11--11---x--|--11--11--11--|
E|--9---9---x---|--9---9---9---|--11--11---x--|--11--11--11--|

Ends on this the fourth time:

e|--------------|--------------|--------------|
B|--13--13--x---|--13--13--13--|--11----------|
G|--13--13--x---|--13--13--13--|--11----------|
D|--13--13--x---|--13--13--13--|--11----------|
A|--11--11--x---|--11--11--11--|--9-----------|
E|--11--11--x---|--11--11--11--|--9-----------|

Continues with:

e|--------------|--------------|--------------|--------------|
B|--------------|--------------|--------------|--9---9---9---|
G|--10--10--x---|--10--10--10--|--10--10--10--|--9---9---9---|
D|--11--11--x---|--11--11--11--|--11--11--11--|--9---9---9---|    (x4)
A|--11--11--x---|--11--11--11--|--11--11--11--|--7---7---7---|
E|--9---9---x---|--9---9---9---|--9---9---9---|--7---7---7---|

INTRO (Palm muted)
VERSE (Palm muted/Open guitar)
CHORUS x3(Open guitar) 


http://www.theblackrabbits.com/

Добавлено: 17.03.2012
Другие материалы по этой песне:
  • Аккорды и текст

Страница создана 17.03.2012
http://primanota.ru/the-black-rabbits/all-alone-again-chords.htm
Привет, Гость.
Предлагаем пройти революционный курс по гитаре.
Подарок от PrimaNota.Ru, забирай!